Tablatura para Bajo de León Larregui: Brillas
Conexión · Inscripción
Letras y Acordes
Pantalla Completa
Imprimir
Versión Texto
Añadir Favorito
Otras Versiones

Mostrar Diagramas
Desfile Automático
Formato del Texto


Brillas(BAJ)

León Larregui

calidad:
llrr0032
AUTOR: Larregui
ALBUM: Solstis (2012)
Enviado por Daniel
POR FIN ME PUSE A TRABAJAR Y SAQUE LA CANCION,
PARA QUE VEAN QUE ESOS COVERS MALETAS DE YOUTUBE
ESTAN MAL

INTRO
G|---------------------------|
D|---------------------------|
A|-------4-7/4-------4-7/4---|
E|-5-5h7-------5-5h7---------|

VERSO "nos dimos..."
G|---------------------------|
D|---------------------------|
A|-------4-7/4-------4-7/4---|
E|-5-5h7-------5-5h7---------|

"para despues..."
G|------------------------------------|
D|------------------------------------|
A|-2~-------------4~----------7~7777--|
E|------------------------------------|

VERSO II"nos damos"
G|---------------------------|
D|---------------------------|
A|-------4-7/4-------4-7/4---|
E|-5-5h7-------5-5h7---------|

"amanecer..."
G|----------------------------------------|
D|-----------------------------9----------|
A|-2~-----------4~---------7~----77-7-----|
E|-----------------------------------7765-|

CORO
G|----------------------------------|
D|----------------------------------|
A|---7-----7~57789---5-----9~79765--|
E|-7~-7789---------5~-5567----------|

POST CORO
G|------------------------------------------------------------------
D|------------------679----------------------------------------679---
A|-------------7~-79-------------------5~-----------------7~-79------
E|-7~----5~----------------5~----3~-----------7~----5~---------------

G|--------------------------------------------|
D|--------------------------------------------|
A|-------------5~----/10~-10\77777777/1919\~--|
E|5~----3~------------------------------------|

SE REPITE EL VERSO I

"para despues..."
G|---------------------------------------------|
D|---------------------------------------------|
A|-2~------------4~----------7~---7h9p7--------|
E|---------------------------------------7765--|

SE REPITE EL CORO

VERSO III
"y así,..."
G|--------------------------------------679976---------------|
D|------------------------------679--679------976------------|
A|-------7~----------9~------579---79------------9797--------|
E|-7~----------5~----------79------------------------975432--|

FINAL
G|------------------------------------------------------------
D|-----------------679------------------------------------679-
A|------------7~-79----------------5~----------------7~-79----
E|7~----5~-------------5~----3~----------7~----5~-------------

G|------------------457-|
D|---------------457----|
A|-------------57-------|
E|-5~----3~-------------|


Y HASTA QUE ACABA VA ASÍ
G|-----------------------------------------|
D|------------------679--------------------|
A|-------------7~-79----------------5~-----|
E|-7~----5~-------------5~----3~-----------|


ESPERO Y LE SIRVA EL TAB DE ESTA CANCION QUE ESTA MUY CHIDA
Este fichero es trabajo propio de su transcriptor y representa su interpretación personal de la canción. El material contenido en esta página es
para exclusivo uso privado, por lo que se prohibe su reproducción o retransmisión, así como su uso para fines comerciales.

© LaCuerda.net · Aviso Legal · Privacidad