Acordes de Guitarra » L »Leo Dan » Sé que te amaré (Tab)

Sé que te amaré
Leo Dan

Letras, Acordes y Tabs para Guitarra, Bajo y Ukulele

  •            MIm                SOL
    e |-------|----------------|----|--------------|----|
    b |-------|--0-----0-------|-0--|-3-----3------|-3--|
    g |-------|. --0-----0--- .|----|.--4-----4---.|----|
    D |-2-2-2-|. ----2-----2- .|----|.----5-----5-.|----|
    A |-------|----------------|----|--------------|----|
    E |-------|----------------|----|--------------|----|
        m i m   n m i n m i
    
     LA       SI7         MIm
    ----------|------------|-----------|
    -5-----5-|-7---7--7-|-8--8-7-5-|
    ---6------|---8--------|-----------|
    -----7----|-----9------|-----------|
    ----------|------------|-----------|
    ----------|------------|-----------|
    
    
                    MIm
    Soy un muchacho triste,
    
  • +
    ¡Colabora con nosotros!
    Envíanos tu versión de esta canción

Letra de Sé que te amaré
m i m n m i n m i
Soy un muchacho triste,
sin tu cariño,
que va buscando olvido
por no llorar
si el tiempo da razones
a ti te digo
Que me dejes quererte
hasta la muerte para que mas
* V-2-4 IV-1
ESTRIBILLO:
Sé que te amaré
se que te amaré
mas de lo que piensas/so
mucho mas te juro
Se que te amaré
se que amare mi amor (Bis)
Borracho en las cantinas
paso las noches
y veo en cualquier piba
mi decepción
por que no pude nunca
que seas mía
se me ríe la vida
y eso lastima mi corazón




[Sé que te amaré chords][Sé que te amaré cifra]
© LaCuerda.net · aviso legal · privacidad · es · en · pt · contacto