Acordes de Guitarra » L »Leo Dan » Mary es mi amor (Tab)

Mary es mi amor
Leo Dan

Letras, Acordes y Tabs para Guitarra, Bajo y Ukulele

  • E  F#m
       Mary es mi amor
                       E
    solo con ella vivo la felicidad
                            F#m             B7
    yo se que nunca a nadie mas podria amar
                          E
    por que la quiero de verdad
    
            F#m
    por eso Mary por favor 
                           E
    dame tu mano y continuemos siempre asi
                            F#m            B7
    despues de todo que mas te puedo pedir
                      E
    si soy feliz muy feliz
    
                        C#m
    si un dia me faltas tu uu
    
  •  Am      
     MARY ES MI AMOR 
    D7                  G                
    SOLO CON ELLA VIVO LA FELICIDAD
                 E7           Am  
    YO SE QWUE NINCA A NADIE MAS PODRIA AMAR
    D7                      G
    PORQUE LA QUIERO DE VERDAD
             Am 
    POR ESO MARY POR FAVOR
    D7                    G 
    DAME TU MANO Y CONTINUEMOS SIEMPRE ASI
    E7                      Am 
    DESPUES DE TODO QUE MAS TE PUEDO PEDIR
    D7                  G
    SI SOY FELIZ,MUY FELIZ
                        Em
    SI UN DIA ME FALTAS TU 
                          C
    QUE DIOS ME AYUDE A MORIR
    
  • INTRO
    
      t=104
    G|---------------------------------|---------------------------------|
    D|-2-----------2-------2-----------|-2---------------2----2----------|
    A|-----------------------------2---|---------------------------4-----|
    E|---------------------------------|---------------------------------|
    
    
    G|---------------------------------|---------------------------------|
    D|-4-----------4-------4-----------|-4---------------6----4----6-----|
    A|-----------------------------4---|---------------------------------|
    E|---------------------------------|---------------------------------|
    
    
    G|---------------------------------|---------------------------------|
    D|-4-----------4-------4----------|-4---------------4----6----4-----|
    A|-----------------------------4---|---------------------------------|
    E|---------------------------------|---------------------------------|
    
    
    G|---------------------------------|---------------------------------|
    D|-2-----------2-------2-----------|-2---------------2---
  • +
    ¡Colabora con nosotros!
    Envíanos tu versión de esta canción
  • Tutorial
    Como tocar MARY ES MI AMOR en Guitarra acordes
    4:05
  • Tutorial
    HD
    Mary es mi Amor - Tutorial de Guitarra ( Leo Dan )
    Para Principiantes
    15:02
  • Tutorial
    Mary Es Mi Amor
    Como Tocar
    Leo Dan
    4:06

Letra de Mary es mi amor
Mary es mi amor
yo se que nunca a nadie mas podria amar
por que la quiero de verdad
por eso Mary por favor
dame tu mano y continuemos siempre asi
despues de todo que mas te puedo pedir
si soy feliz muy feliz
si un dia me faltas tu uu
que dios me ayude a morir
ya que no volvere a ser
en esta vida feliz
sin ti Mary
sin ti Mary
si estoy viviendo por ti
se repite todo .........




[Mary es mi amor chords][Mary es mi amor cifra]
© LaCuerda.net · aviso legal · privacidad · es · en · pt · contacto