Acordes de Guitarra » L »Le Barón » Exilio (Tab)

Exilio
Le Barón

Letras, Notas, Punteos, Tablaturas y Acordes de Guitarra (Tabs & Chords)

  • Tablatura
     E ----------------------------------------------------------------------
     B ----------------------------------------------------------------------
     G -2-2-2-2-2-2-2-2-1-1-1-1---------2-2-2-2-2-2-2-2-1-1-1-1--------------
     D -------------------------4-4-2-2-------------------------4-4-2-2------
     A -----------------------------------------------------------------4-4-4
     E ----------------------------------------------------------------------
    
     E ----------------------------------------------------------------
     B ----------------------------------------------------------------
     G ----------------------------------------------------------------
     D -------------------4-4-4-4-2-2-2-2-2-2-2-2-2-2-2-2-4-4-2-2------
     A -4-4-4-4-4-4-4-4-4------------------------------------------4---
     E ----------------------------------------------------------------
    
    Verso 1 al terminar esta parte pasamos al puente.
     E -------------------------
     B -------------------------
     G -9-x32-----6-x32----9-x32
     D -9---------6--------9----
     A -7---------4--------7----
    
  • Tablatura
    D|-77777777-6666-4(4)-2-| x2
    
    D|-----------2/4/2-4-2-|
    A|-4(4)(4)(4)----------| 0:12
    
    Guitar 1:
    
    D|-77777777-6666-4(4)-2-| x2 R1
    
    D|---------4444-22222222-4444-22-|
    A|-44444444----------------------|
    entra R1 y se repite esta parte (R2).
    
    y para cuando entra la voz después de:
    D|---------4444-22222222-4444/22-|
    terminas en la 5a dejando sonar esto A|-4-| después entra la voz
    
    Guitar 2:
    
    esto suena entre cada R1 y el cambio a R2
    
  • +
    ¡Colabora con nosotros!
    Envíanos tu versión de esta canción

Letra de Exilio
Verso 1 al terminar esta parte pasamos al puente.
Break lo repiten 2 veces
Verso 2
B -7-7-7-7-5-5-5-5-4-4-4-4-4-4-4-4-7-7-7-7-7-5-5-5-5-7-7-7-79-9-9-9-x4
Repetimos el break 2 veces de nuevo
Al final tocamos este acorde (en palm mute) hasta que finalice
Boten =)



© LaCuerda.net · Aviso Legal · Privacidad
DINAMICO