Acordes de Guitarra » L »L.B.E. » Libera tu alma (Tab)

Libera tu alma
L.B.E.

Letras, Acordes y Tabs para Guitarra, Bajo y Ukulele

  • CLave   :: 's'=slide , 'h'=Hammer ::
    
    ::INtro.01:: *Solo Bateria*
    
    ::INtro.02::  Veces 02
    G] :---------------:---------------:---------------:---------------------:
    D] :---------------:---------------:---------------:---------------------:
    A] :-5-5-5-----3-5-:-5-5-5---8-7-6-:-5-5-5-----3-5-:-5-5-5---------22-33-:
    E] :---------5-----:---------------:---------5-----:---------33-55-------:
    
    ::VErso::
    G] :---------:--------5h7h5-:---------:--------------:
    D] :---------:--------------:---------:--------------:
    A] :-5---5---:-5---5--------:-5---5---:-5---5------3-:
    E] :---------:--------------:---------:--------3-5---:
    
    G] :---------:--------5h7h5-:---------:--------------:
    D] :---------:--------------:---------:--------------:
    A] :-5---5---:-5---5--------:-5---5---:-5---5--------:
    E] :---------:--------------:---------:--------5-0---:
    
    ::preCOro::
    G] :----------:------------:---------------:---------------:
    D] :----------:------------:---------------:---------------:
    
  • +
    ¡Colabora con nosotros!
    Envíanos tu versión de esta canción






[Libera tu alma chords][Libera tu alma cifra]
© LaCuerda.net · aviso legal · privacidad · es · en · pt · contacto
DINAMICO