Acordes de Guitarra » L »Larbanois carrero » El gallo azul (Tab)

El gallo azul
Larbanois carrero

Letras, Acordes y Tabs para Guitarra, Bajo y Ukulele

  • 1/--------------------5-6-5--5-5-5-6-5-5
    2/--5-6-8-6-5----5-6-8-----8----8-8---8-
    3/-7---------7--7-----------------------
    
    1/--------------------5-6-5--5-6h12-10-5
    2/--5-6-8-6-5----5-6-8-----8------------
    3/-7---------7--7-----------------------
    
    1/-0---------------
    2/--8-6-5------6-5
    3/--------7---7---7
    
    
    Dm
    Fue por cañas que encontré
                              A
    En un rancho entre las sierras
                              Dm
    La moza tierna que cantó yo
    
    
  •                         Dm                      A
    1-------------3------------------------3--5--6--5--3---
    2-----3--5--6---6--5--3-------3--5--6------------------
    
    
    1-----3--5--6--5--3-----3--5--3--5
    2---------------------------------
    
    Dm                                              A
    1-------------3------------------------3--5--6--5--3-
    2-----3--5--6---6--5--3-------3--5--6----------------
    
                                  Dm
    1-----3--12--6--5--3--5--------
    2-----------------------6--5--3
    
    Dm
    Fue por Cañas que encontre,
                              A7
    en un rancho entre las sierras,
    
  • +
    ¡Colabora con nosotros!
    Envíanos tu versión de esta canción

Letra de El gallo azul
Fue por cañas que encontré
En un rancho entre las sierras
La moza tierna que cantó yo
Era fiesta familiar
Cumpleaños de la moza
Mejor que rosa era esa flor
Ondulaba el acordeón
Una maxixa liviana
Que daban ganas
De al baile entrar
Yo le dije me permite?
Y ella dijo como guste
De usted es el cumple
Pude atinar
//Vino de la ciudad
Vino de tacuarembo
Su humilde servidor
Se marchara de aquí
Cuando cante el gallo azul
Y allá me olvidará
Que no vea más la luz//
Más la vida me llevo
Por campos desconocidos
Llegó el olvido
Todo llevo
Acampe en cebollati
Y dormí por la frontera
La brasilera me acompaño
Ahora quiero recordar
A la moza de ojos pardos
En aquel rancho
Blanco y azul
Y de fogón junto a fogón
Con su fogata me alumbra
Vivo en penumbras cargo mi cruz
//Vino de la ciudad
Vino de tacuarembo
Su humilde servidor
Se marchara de aquí
Cuando cante el gallo azul
Y allá me olvidará
Que no vea más la luz//




[El gallo azul chords][El gallo azul cifra]
© LaCuerda.net · aviso legal · privacidad · es · en · pt · contacto