Acordes de Guitarra » L »Ladrón » Tu me quieres lastimar (Tab)

Tu me quieres lastimar
Ladrón

Letras, Acordes y Tabs para Guitarra, Bajo y Ukulele

  •                     G
    Tu me quieres lastimar
    
    Yo no se lo que te pasa, tu
    
    Me llamas a mi casa y ni
                     D
    Me dices como estas.
                   C    D
    Es un dia especial
                   C
    que tenia preparado, para estar
               D
    solo a tu lado pero tu no vas a
       G
    Estar.
    
    Yo no quiero hoy pelear, para
    
    Que vamos a herirnos, mejor
    
  • Armoniza en Sol mayor
    
    e-----3-2---2/3-3--3-2-3-2-3-2-3/5-3--3-2-3-2-3-2-3/5-3-
    B---------5---------------------------------------------
    G-2-2---------------------------------------------------
    D-------------------------------------------------------
    A-------------------------------------------------------
    E-------------------------------------------------------
    
    e---2-5-3-2-----2--------------------
    B-5---------5-5---5-3--3-3-3-3-3-5---
    G----------------------------------5-
    D------------------------------------
    A------------------------------------
    E------------------------------------
    
    e-------------------------------------------------
    B-------------3----------------3--------3---------
    G-5-4-5-4-5-4---5--5-4-5-4-5-4---5--2-4---5-4-2---
    D-----------------------------------------------5-
    A-------------------------------------------------
    E-------------------------------------------------
  • Hola soy levi, aquí dejo esta buena rola, según yo, espero mi
     transcripción les guste y pues les sirva...
    
    NOTA: en todos los versos se encuentran solo las primeras 3
    cuerdas e,b, g para ahorrar espacio y prácticamente casi
    todos los punteos son el la 3, g.
    
    NOTA (2): estos punteos van totalmente ligados a la velocidad real
     de la voz del cantante, es decir para que se oiga más acorde
    a como se quiere, se debe respetar la velocidad de la canción,
     del canto y la letra.
    
    NOTA (3): la pleca (/) entre punteos significa deslizar el dedo del
    primer punteo ubicado justo antes de (/) al siguiente y/o hacerlo
    muy rápido...
    
    
    
    Grupo Ladrón
    “Tú me quieres lastimar”
    
    
      Tú me quieres lastimar
    e|--------------|--------
    b|--------------|--------
    g|1---1---------|2--2/3--
    
      yo no sé lo que te pasa
      ------------|------|-----
      ------------|------|-----
      1---1-------|2-----|3/4--
    
      tú me llamas a mi casa
      ------------|-----|-----
      ------------|-----|-----
      1---1-------|2----|3/4-
  • +
    ¡Colabora con nosotros!
    Envíanos tu versión de esta canción

Letra de Tu me quieres lastimar
Tu me quieres lastimar
Yo no se lo que te pasa, tu
Me llamas a mi casa y ni
Me dices como estas.
Es un dia especial
que tenia preparado, para estar
Estar.
Yo no quiero hoy pelear, para
Que vamos a herirnos, mejor
Vamos a unirnos y ya no
Pasarla mala.
Pero esto no lo entiendes, solo
llamas y me hieres, no te puedes
Controlar.
Tu me quieres lastimar, tu me
Quieres ver sufriendo, tu me quieres
Ver muriendo…. Y me dices
Que no vendras.
Tu me quieres lastimar, que no
Entiendes que te quiero, que no
Entiendes que hoy te espero y contigo
Quiero estar.
(Final)
Tu me quieres lastima-ar.




[Tu me quieres lastimar chords][Tu me quieres lastimar cifra]
© LaCuerda.net · aviso legal · privacidad · es · en · pt · contacto
DINAMICO