Acordes de Guitarra » K »El Koala » Opá yo viazé un corrá (Tab)

Opá yo viazé un corrá
El Koala

Letras, Acordes y Tabs para Guitarra, Bajo y Ukulele

  • ( A A  G#A)por ejemplo
    
    Intro
    A
    ------------------
    ------------------
    ------------------
    --7--7----7-7-7-7-          x 4
    --7--7----7-7-7-7-
    --5--5----5-0-5-0-
    
     A                         E
    Opa, yo voy a hacer un corral,
                  D
    pa echar gallinas,
                  E
    y pa echar mininos,
    
     A                         E
    Opa, yo voy a hacer un corral,
    
  • A
    ------------------
    ------------------
    --2--2----2-2-2---
    --2--2----2-2-2-2-          x 4
    --0--0----0-0-0-2-
    ----------------0-
    
     A                         E
    Opa, yo voy a hacer un corral,
                  D
    pa echar gallinas,
                  E
    y pa echar mininos,
    
     A                         E
    Opa, yo voy a hacer un corral,
                  D
    pa echar perdices
                  E
    
  • A                    E              D                   E
    Opá, yo viacé un corrá, pa eshá gallinas, y pa eshá mininos /
    A                   E               D                 E
    Opá, yo viacé un corrá, pa eshá perdices, y eshá pajarillos /
    A                    E               D                     E
    Opá, yo viacé un corrá, pa eshá guarrillas, y pa eshá guarrillos /
    A                    E               D                    E
    Opá, yo viacé un corrá, pa eshá una potra, ¡ay! con su potrillo /
           D                 E
    Yo t’ayuo a arrancá la Guzzi,
          D                 E
    yo t’ayuo a pintá el Land Rover,
          D                 E
    yo t’ayuo a sacá las papas,
          D                 E
    yo t’ayuo a lo que haga farta..., pero que sepas que... /
    A                    E             D                 E
    Opá, yo viacé un corrá, pa eshá gallina y pa eshá minino /
    A                    E            D                  E
    Opá, yo viacé un corrá, con tu permiso, hago un corralillo /
    
  • E** =    ------
             ------
             --10--
             ---9--
             ---7--
             ------
    Intro: hace unas variaciones en A que
           se pueden improvisar sin problemas
    
      A                         E
    Opa, yo voy a hacer un corral,
                D
    pa echar gallinas,
                 E*
    y pa echar mininos,
    
      A                       E
    Opa, yo voy a hacer un corral,
                 D
    pa echar perdices
    
  • OPA, VIAZE UN CORRA (El koala)
    El bajo entra con la batería
    Opña viaze un corrá
    G|---------------------------------------------------------
    D|------------------------------0-0-0-0-0-0-2-2-2-2-2-2---- x2
    A|-----0-0-0-0-0-0-----------------------------------------
    E|------------------0-0-0-0-0-0----------------------------
    
    Yo te ayuo
    G|--------------
    D|----0-----2---x4
    A|--------------
    E|--------------
    
    Opña viaze un corrá
    G|----------------------------------------------------
    D|------------------------------000000-222222--------- x2
    A|-----000000-----------------------------------------
    E|------------------000000----------------------------
    
    Estribillo
    Tengo las maeras
    G|---------------------------------
    D|-----------------0-0-0-2-2-2----- x4
    A|-----------4-4-4-----------------
    E|-----2-2-2-----------------------
    
    Opña viaze un corrá
    G|---------------------------------------------------------
    D|------------------------------0-0-0-0-0-0-2-2-2-2-2-2---- x2
    A|-----0-0-0-0-0-0------
  • +
    ¡Colabora con nosotros!
    Envíanos tu versión de esta canción

Letra de Opá yo viazé un corrá
Opá, yo viacé un corrá, pa eshá gallinas, y pa eshá mininos /
Opá, yo viacé un corrá, pa eshá perdices, y eshá pajarillos /
Opá, yo viacé un corrá, pa eshá guarrillas, y pa eshá guarrillos /
Opá, yo viacé un corrá, pa eshá una potra, ¡ay! con su potrillo /
Yo t’ayuo a arrancá la Guzzi,
yo t’ayuo a pintá el Land Rover,
yo t’ayuo a sacá las papas,
yo t’ayuo a lo que haga farta..., pero que sepas que... /
Opá, yo viacé un corrá, pa eshá gallina y pa eshá minino /
Opá, yo viacé un corrá, con tu permiso, hago un corralillo /
Tengo las maeras y tengo dos tablones.
La chapa, der tejao, la he sacao d’unos bidones...
tengo las maneras y tengo las intenciones... opaito...
er domingo empiezo a ver si tengo cojones... ¡¡¡¡Opá!!!! /
Opá, yo viacé un corrá, pa eshá conejas y eshe conejillos /
Opá, yo viacé un corrá, pa eshá una perra, ¡ay! con sus perrillos /
Opá, yo viacé un corrá, pa guardar cosas y hasta la motillo /
Opá yo viacé un corrá, con tu permiso hago un corralillo/
Yo t’ayuo a barré los chumbos,
yo t’ayuo a quemá, Ramón,
t’ayuo a lo que haga farta.
¡¡T’ayuo, t’ayuo a tooo!!, pero que sepas que /
Opá, yo viacé un corrá...

Video de Opá yo viazé un corrá
[]




[Opá yo viazé un corrá chords][Opá yo viazé un corrá cifra]
© LaCuerda.net · aviso legal · privacidad · es · en · pt · contacto