Acordes de Guitarra » K »Kema » Ay Amor (Tab)

Ay Amor
Kema

Letras, Acordes y Tabs para Guitarra, Bajo y Ukulele

  • E||-------------------0---------
    B||-1---1--3---3--1-----3---3---
    G||--2---2--2---2--2---2--2--2--
    D||---3------3------3------3----
    
    
    Ayer te vi pasar del brazo de otro
    
    E||-------------------0---------
    B||-1---1--3---3--1-----3---3---
    G||--2---2--2---2--2---2--2--2--
    D||---3------3------3------3----
    
    y te confieso que me dolio
    
    E||-----0-------------0----------
    B||-3------3---3---1-----1---1---
    G||--3----3---3--3--2---2---2-2--
    D||---3------3-------3-----2-----
    
    
  • +
    ¡Colabora con nosotros!
    Envíanos tu versión de esta canción

Letra de Ay Amor
Ayer te vi pasar del brazo de otro
y te confieso que me dolio
ayer senti que deveras te perdi
y vivi lo que yo te hice vivir
ayer senti que mi mundo se rompio
y le pregunte a la noche
y callada se quedo
lo senti como un reproche
y solo pude decir
ay amor
que me lleve el que me trajo digo yo
ay amor
paso las noches en vela deshojando margaritas pero siempre
me dicen que no
ay amor
aqui estare esperando por si vuelves
ay amor
*igual ke el primer verso:
saber que te perdi
ya me hace otro
que dificil aprender asi
ayer senti que mi mundo se rompio
y le pregunte a la luna
y callada se quedo
no tuvo respuesta alguna
y solo pude decir
ay amor
que me lleve el que me trajo digo yo
ay amor
paso las noches en vela deshojando margaritas pero siempre
me dicen que no
ay amor
aqui estare esperando por si vuelves
ay amor
Ay amor..
ay amor
como agua pa ese viento
como hoguera pa este frio
ay amor
como lluvia en el desierto
yo te necesito
aqui estare esperando por si vuelves
ay amor
(x2)
Ay amor..

Video de Ay Amor
[]




[Ay Amor chords][Ay Amor cifra]
© LaCuerda.net · aviso legal · privacidad · es · en · pt · contacto