Acordes de Guitarra » K »Karma Sudaca » Criminal (Tab)

Criminal
Karma Sudaca

  • e|-----------------------------------------|
    B|-----------------------------------------|
    G|-----------------------------------------|
    D|------------3------------------3--3-5----|
    A|-----3h4h5-------5-4-5---3h4h5---5-------|
    E|----3-------------------3----------------|
                  HA   PM...
    
    e|-----------------------------------------|
    B|-----------------------------------------|
    G|-----------------3-5---------------------|
    D|---------3----------5-3------------------|
    A|---3h4h5---5-3h5-------5-3---------------|
    E|--3--------------------------------------|
                       HA.........
    Estrofa:
    En esta parte hay ke seguirle el ritmo al tema,
    pero esos son los acordes
      Enciendo un faso...
    e|-----------------------------------------|
    
  • +
    ¡Colabora con nosotros!
    Envíanos tu versión de esta canción

Letra de Criminal
HA PM...
HA.........
Estrofa:
En esta parte hay ke seguirle el ritmo al tema,
pero esos son los acordes
Enciendo un faso...
Estribillo:
No seee!! Cual eeess
Despues hace un tercer acorde C5
Interludio:
Outro
HA PM...
Ha....




[Criminal chords][Criminal cifra]
© LaCuerda.net · aviso legal · privacidad · es · en · pt · contacto