Acordes de Guitarra » K »Karatula » Tu imagen de mujer (Tab)

Tu imagen de mujer
Karatula

Letras, Acordes y Tabs para Guitarra, Bajo y Ukulele

  •           G         Bm            C                D                 G  
    E  |-------3---------------2--------------0----------------2---------3--
    B  |------0---0----------3-------------1---1------------3---3--------0--
    G  |-----0------0------4-------------0------0---------2------2-------0--
    D  |----0-------------4-------------2----------------0---------------0--
    A  |---2------------2-------------3----------------0-----------------2--
    E  |--------------------------------------------------------------------
    
           G          Bm             C                   G
    ------------3---------------2------------0-----------2---|
    ---------0---0----------3--3-----------1---1--------3-3--|
    -------0------0------4------4--------0-------0-----2---2-|
    ------0-------------4--------------2--------------0------|
    -----2------------2--------------3---------------0-------|
    ---------------------------------------------------------|
    
    
    DEPUES VAN ESTOS ACORDES
    
       G     Bm    C      D   ESTOS VAN RASGUEADOS
    
  •     G            Bm      C          D           G
    e|------3------------2-------0----------232-----3--
    B|-----3--3---------3-------1--1------3-----3---3--
    G|----0----0-------4-------0----o----2-------2--0--
    R|---0------------4-------2---------0-----------0--
    A|--2------------2-------3----------------------2--
    E|----------------------------------------------3--
    
        G           Bm        C           D
    ------3------------2-------0---------2----------
    -----3--3---------3-------1--1------3--3--------
    ----0----0-------4-------0----o----2-----2------
    ---0------------4-------2---------0-------------
    --2------------2-------3---------0--------------
    ------------------------------------------------
    
    
    G Bm C D  <- ESTO VA RASGUEADO
    
    G                      Bm
    
  • +
    ¡Colabora con nosotros!
    Envíanos tu versión de esta canción

Letra de Tu imagen de mujer
DEPUES VAN ESTOS ACORDES
CUANTAS NOCHES SIN DORMIR
CUANTAS NOCHES DE PASION
CUANTAS VECES TE SENTI VENIR
A MIS BRAZOS CORAZON.
Y ES QUE MIS MANOS VACIAS
TODAVIA SIGUEN EXTRAÑANDOTE
Y ES QUE MIS MANOS VACIAS
A UN SIGUEN DIBUJANDO EN MI PIEL.
CUANTAS VECES TE DEJE PARTIR
Y EN SILENCIO UNA LAGRIMA RODO
CON UN BESO HOY TE RECORDARE
Y EN MIS SUEÑOS ESTA NOCHE TE VERE
Y ES QUE MIS MANOS VACIAS
TODAVIA SIGUEN EXTRAÑANDOTE
Y ES QUE MIS MANOS VACIAS
A UN SIGUEN DIBUJANDO EN MI PIEL.
TU IMAGEN DE MUJER
TU IMAGEN DE MUJER MUJER
TU IMAGEN DE MUJER
TU IMAGEN DE MUJER MUJER
Y ES QUE MIS MANOS VACIAS
TODAVIA SIGUEN EXTRAÑANDOTE
Y ES QUE MIS MANOS VACIAS
A UN SIGUEN DIBUJANDO EN MI PIEL.
CUANTAS VECES TE DEJE PARTIR
Y EN SILENCIO UNA LAGRIMA RODO
CON UN BESO HOY TE RECORDARE
Y EN MIS SUEÑOS ESTA NOCHE TE VERE
Y ES QUE MIS MANOS VACIAS
TODAVIA SIGUEN EXTRAÑANDOTE
Y ES QUE MIS MANOS VACIAS
A UN SIGUEN DIBUJANDO EN MI PIEL.
TU IMAGEN DE MUJER
TU IMAGEN DE MUJER MUJER
TU IMAGEN DE MUJER
TU IMAGEN DE MUJER MUJER
ESPERO QUE LES HAYA GUSTADO, DEPUES LES PASO LOS SOLOS
Y SI CLAUDIA TU IMAGEN DE MUEJER NO ME DEJA NI DORMIR.




[Tu imagen de mujer chords][Tu imagen de mujer cifra]
© LaCuerda.net · aviso legal · privacidad · es · en · pt · contacto
DINAMICO