Acordes de Guitarra » K »Karamelo Santo » Luna Loca (Tab)
  • Tablatura
    e.--------------------------------------
    B.--------------------------------------
    G.--------------------------------------
    D.--------------------------------------
    A.-------77--55--33------77--55--33-----
    E.----55-------------55-----------------
    
    
    e.--------------------------------------
    B.--------------------------------------
    G.--------------------------------------
    D.--------------------------------------
    A.-------33--22-00------33--22--00------
    E.----11------------11------------------
    
    e.--------------------------------------
    B.--------------------------------------
    G.--------------------------------------
    D.--------------------------------------
    A.-------55--33--22------55--33--22-----
    
  • +
    ¡Colabora con nosotros!
    Envíanos tu versión de esta canción

Letra de Luna Loca
EL INTRO SE HACE DOS VECES OK?
Luna loca alumbranos
Esta ruta nueva que empezo
Y al llegar a ese lugar
Danos balas de nuevo
Luna loca embriaganos
El camino amigo que empezo
Y al llegar a ese lugar
Danos balas de nuevo
Todavía brillan tiros,
Calaveras, sueños, gritos
De la despedida eterna
Tan bonita que me dieras
Mamita amor tú…
La noche elegida
Aprendimos con los años
Caminar es lo sagrado
La esperanza mueve piedras
No volver, dejar las huellas…
Cuando coje el animal,
Alegra el rebaño!
Luna loca alumbranos
Esta ruta nueva que empezo
Y al llegar a ese lugar
Danos balas de nuevo
Luna loca embriaganos
El camino amigo que empezo
Y al llegar a ese lugar
Danos balas de nuevo
Esta parte la hace medio reggae!
Luna me conoces bueno,
Sin tu luz me pongo malo,
Oculto en tu lado oscuro,
Busco mi camino nuevo…
VUELVE AL SKA!
You know me sad
You know me bad
You want me smash
But they never stop…
Yo solo sé,
La esquinas que anduve!
PUNK TODO EN QUINTAS!!!
LUNA DAME NUEVA FUERZA PARA ANDAR
TODA LA VIDA ME EMPUJARON SIEMPRE AL LLEGAR
Y A CREER QUE ESTE VIAJE ERA SOLO Y DESIERTO…
EL SECRETO DEL CAMINO ESTA EN ANDAR,
LO QUE EL VIAJE TE QUITA ES…
LO QUE EL VIAJE TE DA! LAm5
TIENES ESPINAS, TAMBIEN TIENES REMEDIO!....
VUELVE AL SKA!!
Luna loca alumbranos
Esta ruta nueva que empezo
Y al llegar a ese lugar
Danos balas de nuevo
Luna loca embriaganos
El camino amigo que empezo
Y al llegar a ese lugar
Danos balas de nuevo
Para esta parte en la q dice muchas veces luna loca
pueden hacer los acordes con ritmo de ska obvio
o hacer el intro
LUNA LOCA,
LUNA LOCA!
LUNA LOCA,
LUNA LOCA!
BUENO ESE ES EL TEMA ESTA BIEN LA VERDAD Q ESTA BIEN LO UNICO
Q TIENE Q ESCUCHAR LA CANCION PARA ACOMODAR LOS TIEMPOS
Y EL FINAL ESCUCHENLO PORQ YO YA LES PASE LOS TONOS
UDS ACOMODENLOS
BUENO NADA MAS ESO ES TODO EL TEMA ESTA MUY BUENO ESCUCHENLO
SALUDOS PARA TODOS CHE!!!



© LaCuerda.net · aviso legal · privacidad · contacto