Acordes de Guitarra » K »Kalean » En el mismo lado (Tab)

En el mismo lado
Kalean

Letras, Acordes y Tabs para Guitarra, Bajo y Ukulele

  • la canción comienza ha si
    
    1/-----
    2/-----
    3/7-3-5   (x4)
    4/-----
    
    
    1/-----------------------------------------------
    2/-----------------------------------------------
    3/3-3-3-3-3-3-2-2-2-2-2-2------------------------     (x4)
    4/------------------------3-3-3-3-3-3-0-0-0-0-0-0
    
    
    
    1/-----------------------------------------------
    
    2/-----------------------------------------------
    3/------------------------2-2-2-2-2-2-2-2-2-2-2-2
    4/3-3-3-3-3-3-3-3-3-3-3-3------------------------
    
    1/-----------------------------------------------
    2/-----------------------------------------------
    3/3-3-3-3-3-3-3-3-3-3-3-3-5-5-5-5-5-5-5-5-5-5-5-5  (x8)
    4/-----------------------------------------------
    
    1/-------------
    2/-------------
    3/-------------  (x2)
    4/2-2-2-2-2-2-0
    
    
    1/-----------------------------------------------
    2/-----------------------------------------------
    3/------------------------2-2-2-2-2-2-2-2-2-2-2-2
    4/3-3-3-3-3-3-3-3-3-3-3-3------------------------
    
    1/-----------------------------------
  • +
    ¡Colabora con nosotros!
    Envíanos tu versión de esta canción



Video de En el mismo lado
[]




[En el mismo lado chords][En el mismo lado cifra]
© LaCuerda.net · aviso legal · privacidad · es · en · pt · contacto
DINAMICO