Acordes de Guitarra » K »Kadeho » Pobre Isabel (Tab)

Pobre Isabel
Kadeho

Letras, Acordes y Tabs para Guitarra, Bajo y Ukulele

  •     Emadd9            DsusG
    e|----------------------------------|  (x8)
    B|----------------------------------|
    G|-----------0---------------2------| *Este punteo va a 
    D|--------4-----4---------0---------|  lo largo de toda la 
    A|-----2-----------2----------------|  canción excepto en 
    E|--0-----------------3-------------|  el coro.
    
        C5
    e|--------------|
    B|--------------|
    G|--5--5--5--5--|
    D|--5--5--5--3--|
    A|--3--3--3--3--|
    E|--------------|
    
    
    
    Pobre Isabel, ha perdido la cabeza,
    
    
  • +
    ¡Colabora con nosotros!
    Envíanos tu versión de esta canción

Letra de Pobre Isabel
Pobre Isabel, ha perdido la cabeza,
nada que hacer, nunca fue lo que aparenta.
Sueña Isabel, con hacerlo todo suyo,
nada que hacer, casi siempre vuelve a fracasar.
Entre sueños y ambiciones, va quedando atrás,
en la esencia de la pobreza, ya no puede más.
Y la locura de ser siempre mujer vuela y desaparece
vende la piel.
Comprenderás que nada nos pertenece
y que más da si tiene lo que mereces.
Entenderás que nada se cambia con poder
y que más da si al fin nos pudrimos igual.




[Pobre Isabel chords][Pobre Isabel cifra]
© LaCuerda.net · aviso legal · privacidad · es · en · pt · contacto
DINAMICO