Tablatura de Julius Popper: La Innombrable
Julius Popper  corregir
Julius Popper [2009]
Les dejo un vídeo de mi versión de la canción para que puedan escuchar como
se toca. Suerte.

https://www.youtube.com/watch?v=WSylmXcvk0o


Intro


e|---8----8--x-x--8-8---8--8---8--8--
B|---6----6--x-x--6-6---6--6---6--6--
G|---6----6--x-x--6-6---6--6---6--6--
D|---6----6--x-x--6-6---6--6---6--6--
A|-----------------------------------
E|-----------------------------------

e|-- 11---11--x-x--11-11---11-11--10-10-
B|---8----8---x-x--8--8----8--8---8--8--
G|---8----8---x-x--8--8----8--8---8--8--
D|---8----8---x-x--8--8----8--8---8--8--
A|--------------------------------------
E|--------------------------------------

e|---8----8--x-x--8-8---8--8---8--8--
B|---6----6--x-x--6-6---6--6---6--6--
G|---6----6--x-x--6-6---6--6---6--6--
D|---6----6--x-x--6-6---6--6---6--6--
A|-----------------------------------
E|-----------------------------------

e|---6----6--x-x--6-6--|
B|---5----5--x-x--5-5--|
G|---5----5--x-x--5-5--|
D|---5----5--x-x--5-5--|
A|---------------------|
E|---------------------|

C#maj7 - D# (D# - D)
C#maj7 - C7 (C7 - C7* - C7 )
C#maj7 D# (D#-D) Dale un cigarro a la niña si quiere fumar
C#maj7 C7 (C7-C7*-C7) lleve a la niña a su baile si quiere bailar
C#maj7 D# (D#-D) tómala de la manito de noche y de día
C#maj7 C7 (C7-C7*-C7) llévala muy despacito se puede quebrar
C#maj7 D# (D#-D) Dile que aun la sueñas despierto
C#maj7 C7 (C7-C7*-C7) dile que las quisieras besar
C#maj7 D# (D#-D) Quédate a un lado muy cerca cuando tenga frio
C#maj7 C7 (C7-C7*-C7) pero mantén tu distancia te puedes quemar
C#maj7 D# (D#-D) Dile que ella es la más linda de todas la flores
C#maj7 C7 (C7-C7*-C7) dile que ella es la más bella de todo el lugar
C#maj7 D# Hazle saber cuanto antes que ella es tu vida
C#maj7 C7 hazle sentir cuanto antes que no hay nadie más
C#maj7 D# Mírala en sus ojitos y hazla querida
C#maj7 C7 hazle soñar cuanto antes que ella es tu mar
C#maj7 Dile que no se muera
D# que de ti no se vaya mas
C#maj7 que a tu pecho se adhiera
C7 no dejarla llorar jamás
C#maj7 Dile reina de mi corazón
D# diosa de todo mi amor
C#maj7 ángel de puro color
C7 fuego que quema el dolor
C#maj7 D# ooooooooooooooooooooooooooooooooohhhh
C#maj7 C7 ooooooooooooooooooooooooooooooooohhhh
C#maj7 D# ..................yubiduba duda daaaa ohhh
C#maj7 C7 ..................ohhhhhhhh
C#maj7 Dile reina de mi corazón
D# diosa de todo mi amor
C#maj7 ángel de puro color
C7 fuego que quema el dolor Outro: e|----------------------10--| B|---------------------9----| G|--------------------6-----| D|------------------10------| A|--3-3-3-1--------6--------| E|----------4-1-------------|
Este fichero es trabajo propio de su transcriptor y representa su interpretación personal de la canción. El material contenido en esta página es
para exclusivo uso privado, por lo que se prohibe su reproducción o retransmisión, así como su uso para fines comerciales.


Otras canciones del Artista

© LaCuerda.net · Aviso Legal · Privacidad