Acordes de Guitarra » J »Julius Popper » Huke (Tab)

Huke
Julius Popper

Letras, Acordes y Tabs para Guitarra, Bajo y Ukulele

  • MI
       hace tanto tiempo que no te miraba
              SOL#
    y ahora me vuelve a gustar
               LA                    LAm
    que tu me quieras tocar todas las noches...
    
    
    INSTRUMENTAL:  MI - SOL# - LA - LAm
    
    
    MI
      hace tanto tiempo que ya no te veo
               SOL#
    y ahora me vuelve a gustar
               LA                    LAm
    que tu me quieras besar todas las noches
    
    MI
      Hace tanto tiempo no te pensaba
    
  •       E       G#      A       Am
    e-|---0---|---4---|---5---|---0---|
    B-|---0---|---4---|---5---|---1---|
    G-|---1---|---5---|---6---|---2---|
    D-|---2---|---6---|---7---|---2---|
    A-|---2---|---6---|---7---|---0---|
    E-|---0---|---4---|---5---|---0---|
    
    
    E - G# - A - Am
    Hace tanto tiempo que no te miraba
    y ahora me vuelve a gustar
    que tu me quieras tocar
    todas las noches
    
    E - G# - Am Am
    Hace tanto tiempo que ya no te veo
    y ahora me vuelve a gustar
    que tu me quieras besar
    todas las noches
    
  • (E - G# - A - Am)
    
    Hace tanto tiempo que no te miraba
    y ahora me vuelve a gustar
    que tu me quieras tocar
    todas las noches
    
    (Riff intro)
    
    e------------------------------------------------------------
    B------------------------------------------------------------
    G------------------------------------------------------------
    D------------------------------------------------------------
    A----------2--------------2-------------6-------------6------
    E-0-0--2h4---2h4-0-0--2h4---0--4-4--6h8---0--4-4--6h8---0----
    
    e------------------------------------------------------------
    B------------------------------------------------------------
    G------------------------------------------------------------
    D------------------------------------------------------------
    
  • +
    ¡Colabora con nosotros!
    Envíanos tu versión de esta canción

Letra de Huke
hace tanto tiempo que no te miraba
y ahora me vuelve a gustar
que tu me quieras tocar todas las noches...
hace tanto tiempo que ya no te veo
y ahora me vuelve a gustar
que tu me quieras besar todas las noches
Hace tanto tiempo no te pensaba
y ahora te vuelvo a imaginar
y ahora te vuelvo a encontrar
todas las noches...
Empiezo a verte como ayer
termino el dia sin saber
que nos dijimos, si fue el camino.
Hace tanto tiempo que no te soñaba
y ahora te vuelvo a encontrar,
y ahora te vuelvo a besar
todas las noches
hace tanto tiempo que ya no jugaba
y ahora te vuelvo a llamar
todas las noches
Hace tanto tiempo que no te miraba...
y ahora te vuelvo a encontrar,
y ahora te vuelvo a mirar
todas las noches...
aguante Julius!




[Huke chords][Huke cifra]
© LaCuerda.net · aviso legal · privacidad · es · en · pt · contacto