Acordes de Guitarra » J »Julion Alvarez » Terrenal (Tab)

Terrenal
Julion Alvarez

Letras, Acordes y Tabs para Guitarra, Bajo y Ukulele

  • e|----7-7-7-7--8-10------------------------------|
    b|------------------10s--10-10-12-13-------------|
    g|-7--7-7-7-7--9-11------------------------------|
    
    e|-7--7-7-3-7--8/10-12-10--8---------------------|
    b|-8--8-8-5-8-10/12-13-12-10---------------------|
    g|-----------------------------------------------|
    
    e|---10-10-10-10-12-12/14-14-8-------------------|
    b|---12-12-12-12-13-13/15-15-10------------------|
    g|-7---------------------------------------------|
    
    e|--8--8--10-12-7-7-7-3-7--8/10-12-­10-8--10-8--7-|
    b|--10-10-12-13-8-8-8-5-8-10/12-13-12­-10-12-10-8-|
    g|-----------------------------------------------|
    
    e|--------------------------------------­---------|
    b|-8-8-10-10/12-12-12-14-14/15-15----------------|
    g|--------------------------------------­---------|
    
    
  • +
    ¡Colabora con nosotros!
    Envíanos tu versión de esta canción
  • Tutorial
    Como tocar - Terrenal de Julion Alvarez - Tutorial Guitarra (HD)
    5:18

Letra de Terrenal
e|--8--8--10-12-7-7-7-3-7--8/10-12-­10-8--10-8--7-|
b|--10-10-12-13-8-8-8-5-8-10/12-13-12­-10-12-10-8-|
Si pudiera ser tu cama
O la funda de tu almohada
Ser el agua que te moja
O la toalla que te abraza
Y secar tu piel mojada.
Si pudiera ser la sombra
Y seguirte a donde vayas
Ser el aire que respiras
El espejo a donde a diario
Te maquillas.
Pero solo soy un simple terrenal
Que vive alucinando
Eso de llamarte por las noches y colgar
Se me sigue dando.
Pero solo soy un simple terrenal
Que sueña con tenerte
Mientras viva yo no quito el dedo del renglón
Para tu buena suerte.e..e
Si pudiera ser la ropa
Que te viste y que te toca
Ser el cauce de tu río
El sueño más erótico
Y prohibido.
Pero solo soy un simple terrenal
Que vive alucinando
Eso de llamarte por las noches y colgar
Se me sigue dando.
Pero solo soy un simple terrenal
Que sueña con tenerte
Mientras viva yo no quito el dedo del renglón
Para tu buena suerte




[Terrenal chords][Terrenal cifra]
© LaCuerda.net · aviso legal · privacidad · es · en · pt · contacto