Acordes de Guitarra » J »Julieta Venegas » Lento (Tab)

Lento
Julieta Venegas

Letras, Acordes y Tabs para Guitarra, Bajo y Ukulele

  • INTRO: F - Bb (x4)
    
    VERSOS:
    F          Bb
    Si quieres un poco de mi
    F       Bb
    Me deberias esperar
    F      Bb        Gm  D#maj7  Gm6  Gm7
    Y caminar a paso lento, muy  lento
    
    F        Bb
    Y poco a poco olvidar
    F           Bb 
    El tiempo y su velocidad
    F         Bb           Gm  D#maj7 Gm6 Gm7 
    Frenar el ritmo ir muy lento, mas lento
    
    CORO:
    Bb  C           F     Am 
    Se   delicado y espera
    
  • intro: Cmaj7, Em, Cmaj7
    
    D             G          D        G
    Si quieres un poco de mí Me deberías esperar
    D           G     Em   Cmaj7 Em
    Y caminar a paso lento Muy   lento
    D          G          D        G
    Y poco a poco olvidar El tiempo y su velocidad
    D                 G     Em     Cmaj7  Em
    Frenar el ritmo, ir muy lento, más   lento
    
    coro:
    G   A         D
    Ser delicado y esperar
    F#m         G        A         D
    Dame tiempo para darte Todo lo que tengo
    G   A         D        F#m         G       A
    Ser delicado y esperar Dame tiempo para darte
    
            D       F#m G D Dsus2 G Em Cmaj7 Em Cmaj7 D
    
  • Intro: C / F (x4)
    
    C           F            C
    Si quieres un poco de mí,
            F           C
    me deberías esperar.
           F          Dm   / Gsus4/E
    Y caminar a paso lento,
        Cdim/D // Dm7
    muy lento;
    C           F       C
    y poco a poco olvidar,
                 F        C
    el tiempo y su velocidad
               F             Dm /  Gsus4/E
    frenar el ritmo, ir muy lento,
        Cdim/D // Dm7
    más lento.
    
    
    
  • InTrO: F-Bb (x8)
    
    VeRsOs:
    F           Bb
    Si quieres un poco de mi
    F       Bb
    Me deberias esperar
    F      Bb       Gm*  Gm5sus*  Gm6sus*  Gm7sus*
    Y caminar a paso lento, muy  lento
    
    F        Bb
    Y poco a poco olvidar
    F           Bb
    El tiempo y su velocidad
    F         Bb           Gm* Gm5sus* Gm6sus* Gm7sus*
    Frenar el ritmo ir muy lento, mas lento
    
    CoRo:
    F  Am7*           F7*   Am-Am*
    Se   delicado y espera
    
  • se escucha un 95 % igual, espero sea de su agrado, el bajeo en 
    si empieza hasta el segundo 34 pero lo pueden tocar desde el 
    principio de la canción ya seria cuestión de cada quien.
    
    1093746839202837373737 besos para mi novia Sarahi la niña más 
    hermosa de la UAQ
    
    
    VERSO
    
    G---------------------------------------------------
    D----------------------------------4-4--------44444-
    A-------1-1-----1-1-----1-1-----3----------3--------
    E---1-1-----1-1-----1-1-----3-3--------3-3----------
    “si quieres un poco de mi..”
    
    CORO
    
    G------------------------------------------
    D------------------------------------------
    A-------8-------10-------3-------7---------
    E---6-6---6-8-8----8-1-1---1-5-5---5-------
    “se delicado y espera..”
    
    
    G------------------------------------------
    D------------------------------------------
    A-------8-------10-------333------777------
    E---6-6---6-8-8----8-1-1------5-5----------
    
    
    
    G------------------------------------------
    D--------
  • se escucha un 100 % igual, espero sea de su agrado.
    
    VERSO
    
    G---------------------------------------------------
    D----------------------------------4-4--------44444-
    A-------1-1-----1-1-----1-1-----3----------3--------
    E---1-1-----1-1-----1-1-----3-3--------3-3----------
    “si quieres un poco de mi..”
    
    CORO
    
    G------------------------------------------
    D------------------------------------------
    A-------8-------10-------3-------7---------
    E---6-6---6-8-8----8-1-1---1-5-5---5-------
    “se delicado y espera..”
    
    
    G------------------------------------------
    D------------------------------------------
    A-------8-------10-------333------777------
    E---6-6---6-8-8----8-1-1------5-5----------
    
    
    
    G------------------------------------------
    D------------------------------------------
    A-------8-------10-------3-------7---------
    E---6-6---6-8-8----8-1-1---1-5-5---5-------
    
    
    
    G------------------------------------------
    D------------------------------------------
    A---
  • +
    ¡Colabora con nosotros!
    Envíanos tu versión de esta canción

Letra de Lento
VERSOS:
Si quieres un poco de mi
Me deberias esperar
Y caminar a paso lento, muy lento
Y poco a poco olvidar
El tiempo y su velocidad
Frenar el ritmo ir muy lento, mas lento
Se delicado y espera
Dame tiempo para darte
todo lo que tengo [CORO:X2] Bb - C
VERSOS:
Si quieres un poco de mi
Dame paciencia y veras
Sera mejor que andar corriendo levanta el vuelo
Y poco a poco olvidar
El tiempo y su velocidad
Frenar el ritmo ir muy lento cada vez mas lento
Se delicado y espera
Dame tiempo para darte
todo lo que tengo [CORO:X2]
INTERMEDIO:
Si me hablas de amor
Si suavizas mi vida
No estare mas tiempo
Sin saber que siento
Se delicado y espera
Dame tiempo para darte
todo lo que tengo [CORO:X2]
OUTRO: Bb - C - F - Am
ACORDES:
|-1-| |-3-| |-3-| |-4-| |-5-| |-6-| |-5-| |-1-|
|-2-| |-3-| |-3-| |-3-| |-3-| |-3-| |-5-| |-2-|
|-3-| |-3-| |-5-| |-5-| |-5-| |-5-| |-5-| |-2-|
|-3-| |-1-| |-5-| |-5-| |-5-| |-5-| |-3-| |-0-|
|-8-| |-8-| |-6-| |-8-|
|-9-| |-10| |-7-| |-7-|
|-10| |-10| |-8-| |-9-|
|-10| |-8-| |-8-| |-10|




[Lento chords][Lento cifra]
© LaCuerda.net · aviso legal · privacidad · es · en · pt · contacto