Acordes de Guitarra » J »Juan Fernando Velazco » Tarjetitas (Tab)

Tarjetitas
Juan Fernando Velazco

Letras, Acordes y Tabs para Guitarra, Bajo y Ukulele

  • Intro: G - Bm - Em - D - Em - C - G - Em - G - D
    
    e) |---------15-14-----10-12---15-14-12-10---------10/13---|
    b) |--6/8---------------------------------------12---------|
    g) |-------------------------------------------------------| 
    d) |-------------------------------------------------------|
    a) |-------------------------------------------------------|
    e) |-------------------------------------------------------|
    
    e) |--10h12-10---------------15-14-12----------------------|
    b) |-----------8---8/10---------------10--8---8/10---------|
    g) |-----------------------------------------------11------| 
    d) |-------------------------------------------------------|
    a) |-------------------------------------------------------|
    e) |-------------------------------------------------------|
    
    
    G                D       Em       C
      A donde se han ido tus ganas de
               G             Am    D
    
  • +
    ¡Colabora con nosotros!
    Envíanos tu versión de esta canción

Letra de Tarjetitas
A donde se han ido tus ganas de
ser una persona imprescindible
Donde has escondido tus deseos
Tus anhelos de días mejores
Es que te han comprado con animalitos
Con palabras vacías
Con tarjetitas de amor
Ahora que ya no estás a mi lado
y que tu vida me sabe ajena
ahora que ya no te interesan más
las cosas simples que te ofrecía
ahora que ellos te desean
recuerda que yo era tuyo y que creía en tí
Esto es así, no siempre se acierta, no
yo que te amaba y tú nunca pudiste entenderlo, no
Pero tal vez te has dado cuenta ya
que esto de amar es más complicado que dar regalos y besos
No me digas que vuelves a aparecer
siempre pidiendo y tú no sabes dar
Segunda guitarra con quintas en los mismos acordes:
Esto es así, no siempre se acierta, no
yo que te amaba y tú nunca pudiste entenderlo, no
Pero tal vez te has dado cuenta ya
que esto de amar es más complicado que dar regalos y besos
Termina con:




[Tarjetitas chords][Tarjetitas cifra]
© LaCuerda.net · aviso legal · privacidad · es · en · pt · contacto
DINAMICO