Tablatura para Guitarra de Juan Carlos Alvarado: Le llaman guerrero
Conexión · Inscripción
Letras y Acordes
Pantalla Completa
Imprimir
Versión Texto
Añadir Favorito
Otras Versiones

Mostrar Diagramas
Desfile Automático
Manipular Acordes
Formato del Texto


Le llaman guerrero(TAB)

Juan Carlos Alvarado

calidad:
jclv0751
AUTOR: Fernel Monrroy
ALBUM: Fuego
Enviado por ruben.p.t., basado en jovan
este es la primera parte de la trompeta pero aqui
la escribo como tablatura en guitarra esto es por
la nota de mi menor y no es complicada ahi que seguir
el mismo ritmo de la trompeta, y si la usas en el
teclado como trompeta tambien suena genial.

e--------------------------------------------
B----------8------10-8-----------------------
G---9-9-11---11-9------11-9-7-7-7--9-11-9-7-9
D--------------------------------------------
A--------------------------------------------
E--------------------------------------------x2
y luego...
e-------------10------------------------------10-------------
B-12-12-10-12----12-12-10-12-12-12-10-10-9-10----12--5-7-8-5-
G------------------------------------------------------------
D------------------------------------------------------------
A------------------------------------------------------------
E------------------------------------------------------------x2


Y Luego Ya El Canto:


Em C Cuentan de un Dios que hace maravillas
D Em dandole poder a Su pueblo,
Em C gracias a el conquistaron Reinos,
D Em tomaron ciudades en Su nombre.
Em C Fue cantando, otras veces gritando,
D Em acompañado de sonido de bocina
C D Em C fue cantando, otras veces gritando,
D Em a viva voz a Su Dios.
Em C //Columna de fuego, nube en el desierto
D Em peña de Horeb para todo el Sediento.//
Em C Le llaman "Guerrero", Le llaman "Guerrero"
D Em Jehova de los Ejercitos. luego sigue esto CON LAS TROMPETAS Em C D Em D Em C D Em y despues hace los mismas notas que el coro saludos ala fam pelagio ojala les sirva es muy buena esa alabanza y es con el mismo acorde en el que se encuentra transcripta la alabanza el señor les bendiga
Este fichero es trabajo propio de su transcriptor y representa su interpretación personal de la canción. El material contenido en esta página es
para exclusivo uso privado, por lo que se prohibe su reproducción o retransmisión, así como su uso para fines comerciales.

© LaCuerda.net · Aviso Legal · Privacidad