Acordes de Guitarra » J »José Luis Perales » un Velero llamado Libertad (Tab)

un Velero llamado Libertad
José Luis Perales

Letras, Acordes y Tabs para Guitarra, Bajo y Ukulele

  •  D
    Ayer se fue,
                       A          Bm
    tomo su cosas y se puso a navegar
          A
    una camisa, un pantalon vaquero
      G      D             G
    y una cancion, donde ira
    A      D
    donde ira
    
     D
    Se despidio,
                         A            Bm
    y decidio batirse en duelo con el mar
          A
    y recorrer el mundo en su velero
    G     D            G A   D
    y navegar na   na na navegar
    
    
  •          E                       C#m         E
    Ayer se fue, tomó sus cosas y se puso a navegar,
           B
    una camisa un pantalón vaquero
    A          E            A      B             E
    y una canción, ¿donde irás?         ¿donde irás?)
    
              E                       C#m           E
    Se despidió, y decidió batirse en duelo con el mar,
            B
    y recorrer el mundo en su velero,
    A      E         A       B         E
    y navegar, lairala...         navegar...
    
            G#m            A                   E
    Y se marchó... y a su barco le llamo libertad,
              B                 E   B   C#m
    y en el cielo descubrió gavio - o - tas,
          A     B           E
    y pintó, estelas en el mar...
    
  • F                      Am         Bb         F
    Ayer se fue, tomó sus cosas y se puso a navegar,
           C                        Bb
    una camisa un pantalón vaquero
               F            Bb      C            F
    y una canción, ¿donde irás?         ¿donde irás?
    
    F                    Am            Bb           F
    Se despidió, y decidió batirse en duelo con el mar,
            C                         Bb
    y recorrer el mundo en su velero,
           F         Bb      C         F
    y navegar, lairalá...         navegar...
    
            Am             Bb                  F
    Y se marchó... y a su barco le llamó libertad,
              C                 F   C   Dm
    y en el cielo descubrió gavio - o - tas,
          F     Bb   C      F
    y pintó, estelas en el mar...
    
  •     DO    LAm        DO             SOL   FA      DO
    1|--0--------------0---------------0-3----3-1-----0------------------
    2|-----------3-1-3---1-----------1--------------1---------------------
    3|----------------------0---------------------------------------------
    4|--------------------------------------------------------------------
    5|--------------------------------------------------------------------
    6|--------------------------------------------------------------------
    
                FA    SOL   DO SOL LAm      FA    SOL     DO
    1|----0-1-3-5----5-3--1-0---------------------------------------------
    2|--3-----------------------3---1-----------------3-3-1---------------
    3|--------------------------------------------------------------------
    4|--------------------------------------------------------------------
    5|--------------------------------------------------------------------
    6|--------------------------------------------------------------------
    
             DO                      LAm         DO
    Ayer se fue, tomó sus cosas y se puso a navegar,
           SOL
    una camisa un pantalón vaquero
    
  • +
    ¡Colabora con nosotros!
    Envíanos tu versión de esta canción

Letra de un Velero llamado Libertad
Ayer se fue,
tomo su cosas y se puso a navegar
una camisa, un pantalon vaquero
y una cancion, donde ira
donde ira
Se despidio,
y decidio batirse en duelo con el mar
y recorrer el mundo en su velero
y navegar na na na navegar
Y se marcho
y a su barco le llamo libertad
y en cielo descubrio
ga vio o tas y pinto
estelas en el mar
Su corazon,
busco un forma diferente de vivir
pero las olas le gritaron vete
con los demas, na na na con los demas
Y se durmio
y la noche le grito donde vas
y en sus suenos dibujo
gavi o O tas y penso
hoy debo regresar
Y regreso
y una voz le pregunto
como estas?
y al mirarla descubrio
unos o o jos, na na na,
azules como el mar.
E-mail: drlafuente@gmail.com




[un Velero llamado Libertad chords][un Velero llamado Libertad cifra]
© LaCuerda.net · aviso legal · privacidad · es · en · pt · contacto