Acordes de Guitarra » J »José Luis Perales » Amada mia (Tab)
  • Letra y Acordes
          C
    Amada mia
                      G
    después de tantos años
                      F            C
    después de tantas noches compartidas
                      G
    después de tantos sueños
    F            C
    soñados cada día
                   G
    te sigo amando tanto
          C
    amada mia.
    
     (I)
    Tus ojos negros
    se clavan como siempre
    tu beso es una llama
    que aún me quema
    
  • Tablatura
    c  : 032010
    c* : 032013
    G  : 320033
    F  : 133211
    
    
    arpegios:
    
         C*
    e----------------3-------------------
    B-----------1-------1---1------------
    G--------0----0-------0--------------
    D------------------------------------
    A------3-----------------------------
    E------------------------------------
    
        G
    e-------------3----------------------
    B---------3-----3---3----------------
    G-------0---0-----0------------------
    
  • Tablatura
    E |----------------------------------------------------------------------
    A |----------------------------------------------------------------------
    D |-------------------------------------------5--------------------------
    g |-5------------------------------9^10-9------5----------5^4-4----------
    b |--6------------------------13----------------5-6----------------------
    e |---3^5-5-------8-7-------12-------------------------------------------
    Guitarra 2:
    E |----------------------------------------------------------------------
    A |--------------------------------------8-8-7---------------------------
    D |----------------------------------------------------------------------
    g |--------5---------------------------------------5-----------7---------
    b |---------6-------------10------5^6-6-5-----------6-----------8--------
    e |----------5^8-8---7^8^7------0--------------------3^5-5-------7^10-10-
    
    
    Guitarra 1:
    E |-3-----------------
    A |----3--------------
    D |-------2-----------
    g |----------0-----0--
    
  • +
    ¡Colabora con nosotros!
    Envíanos tu versión de esta canción

Letra de Amada mia
Amada mia
después de tantos años
después de tantas noches compartidas
después de tantos sueños
soñados cada día
te sigo amando tanto
amada mia.
(I)
Tus ojos negros
se clavan como siempre
tu beso es una llama
que aún me quema
yo sigo siendo árbol
y tu la tierra mia
te sigo amando tanto
amada mia.
(II)
Amada mia
después de tantas horas de camino
tu sigues siendo playa
yo sigo siendo río.
(II)
Como siempre
sigo aspirando el aire que respiras
me sigo enamorando
en cada amanecer.
(I)
Amada mia
de risas y de llanto
compañera de tardes amarillas
luna de medianoche
y sol de mediodía
serás por siempre campo
y yo semilla.
(I)
Amada mia
un dia de otoño
se vestirán de blanco mis cabellos
se quedarán dormidos
tus besos en mis besos
y buscaré tus manos
para mecerlos.
(II)
Amada mia
después de tantos años a tu lado
yo sigo siendo brisa
y tu montaña y llano.
(II)
Amada mia
después de tantos mares navegados
tu sigues siendo orilla
y yo gaviota.



© LaCuerda.net · aviso legal · privacidad · contacto