Acordes de Guitarra » J »José Feliciano » Feliz Navidad (Tab)

Feliz Navidad
José Feliciano

Letras, Acordes y Tabs para Guitarra, Bajo y Ukulele

  • D7 G A7 D
    D7 G A7 D
    
              Em   A7
    Feliz Navidad
              D
    Feliz Navidad
              G
    Feliz Navidad
             A7          D
    Prospero Ano y Felicidad.
    
              Em   A7
    Feliz Navidad
              D
    Feliz Navidad
              G
    Feliz Navidad
             A7          D
    Prospero Ano y Felicidad.
    
  • Hay les dejo esta rola esta chida
    
    Saludos para toda la raza de Aguascalientes
    Especialmente para todos los de ''Calvillo''
    
    
    
    
    e|-------------|----0--------|--------------------------------------------|
    B|----3-2-3-0--|--0---3-0----|----3-2-3-0---0-0-----0---------------------|
    G|--2----------|----------2--|--2---------0-----2-2---2-0-0---------------|
    D|-------------|-------------|------------------------------4(4)----------|
    A|-------------|-------------|--------------------------------------------|
    E|-------------|-------------|--------------------------------------------|
    
    e|-------------|----0--------|--------------------------------------------|
    B|----3-2-3-0--|--0---3-0----|----3-2-3-0---0-0-----0---------------------|
    G|--2----------|----------2--|--2---------0-----2-2---2-0-0---------------|
    D|-------------|-------------|------------------------------4(4)----------|
    A|-------------|-------------|--------------------------------------------|
    E|-------------|-------------|-----
  • +
    ¡Colabora con nosotros!
    Envíanos tu versión de esta canción

Letra de Feliz Navidad
Feliz Navidad
Feliz Navidad
Feliz Navidad
Prospero Ano y Felicidad.
Feliz Navidad
Feliz Navidad
Feliz Navidad
Prospero Ano y Felicidad.
(termina con D, comienza con D7)
I wanna wish you a Merry Christmas
I wanna wish you a Merry Christmas
I wanna wish you a Merry Christmas
From the bottom of my heart.
Feliz Navidad
Feliz Navidad
Feliz Navidad
Prospero Ano y Felicidad.
Feliz Navidad
Feliz Navidad
Feliz Navidad
Prospero Ano y Felicidad.
I wanna wish you a Merry Christmas
I wanna wish you a Merry Christmas
I wanna wish you a Merry Christmas
From the bottom of my heart.
Acordes:




[Feliz Navidad chords][Feliz Navidad cifra]
© LaCuerda.net · aviso legal · privacidad · es · en · pt · contacto