Acordes de Guitarra » J »Jose Capmany » Cuando (Tab)
  • Letra y Acordes
    C                    C4
    Cuando podre mirarte a los ojos 
    
    C                      C4
    Cuando se abre una flor y sale su color 
    
    Coro 
    Am  MIm  Am D     C     G                C
    Cuando, cuando, suceda mas nos brillara el sol 
    
    C                      C4
    Cuando sera el dia despues de la noche 
    
    C                     C4
    Cuando dera la suma de nuestros nombres 
    
    Coro...
    
    C                   C4
    Cuando sera vivido lo soñado  
    
  • Tab p/Bajo
    Intro:
    ||-----5-(5/7\5)-|-----5----------||
    ||--------5/7\5--|--------0h2h5\4-||
    ||-3-------------|-3--------------||
    ||---------------|----------------||
    
    1er Verso:
    ||-----5-(5/7\5)-|-----5----------||
    ||--------5/7\5--|--------0h2h5\4-||
    ||-3-------------|-3--------------|| x4
    ||---------------|----------------||
    
    1er Coro:                                                  /-----------------------------x2||
    ||-----------|----------|---------------|----------|-------|----5-(5/7\5)-|-----5----------||
    ||-----------|----------|---------------|---2-3-5--|-5-3-2-|-------5/7\5--|--------0h2h5\4-||
    ||-0--0------|-0--0-----|---------------|-5--------|-------|3-------------|-3--------------||
    ||-------0--0|-------8--|-----(8)\3--3--|----------|-------|--------------|----------------||
       cuan..dooo  cuan..do suceda    mas     nos brill..el.....sol
    
    2do Verso:
    ||-----5-(5/7\5)-|-----5----------||
    ||--------5/7\5--|--------0h2h5\4-||
    ||-3-------------|-3--------------|| x4
  • +
    ¡Colabora con nosotros!
    Envíanos tu versión de esta canción

Letra de Cuando
Cuando podre mirarte a los ojos
Cuando se abre una flor y sale su color
Cuando, cuando, suceda mas nos brillara el sol
Cuando sera el dia despues de la noche
Cuando dera la suma de nuestros nombres
Cuando sera vivido lo soñado
Cuando vera la luz lo que has esperado
Cuando, cuando suceda
mucho mas nos brillara el sol



© LaCuerda.net · aviso legal · privacidad · contacto