Acordes de Guitarra » J »Jorge Rojas » Milagro de amor (Tab)

Milagro de amor
Jorge Rojas

Letras, Acordes y Tabs para Guitarra, Bajo y Ukulele

  • Intro: (G D C D) x2
    
    G             C             G
    Querrán prohibirme que yo crea
    C       C/B        Am   D D7
    en el milagro de tu amor,
    C         Am               Bm (7)
    podrán callar mi voz con guerras
    C                  D
    pero jamás mi corazón.
    
    Podrán cerrarme tantas puertas
    quitarme la respiración,
    podrán en mi camino piedras
    pero me salvara tu amor.
    
    ESTRIBILLO
    D                   C
    Y será tu amor el puerto más seguro
             G                  D (7)
    
  • G D C D G D C G D G
    
    G                         Em
    Querrán prohibirme que yo crea
    C                   D
    en el milagro de tu amor
    Am                       G
    podrán callar mi voz con guerras
    C                D
    pero jamás mi corazón.
    
    
    Podrán cerrarme tantas puertas
    quitarme la respiración
    podrán en mi camino piedras
    pero me salvará tu amor.
    
    D                 C
    Y será tu amor el puerto
                      G
    
  •    G               D                  C
    e|-3-3-------7-7-5-3-5-5-------10-10--8-7-8-8-
    B|------3-3----------------3-3----------------
    G|--------------------------------------------
    D|--------------------------------------------
    
                      D     (Rápido)
    e|-3-3--12-12-10-8-10------0-2-3-5-
    B|------------------------3--------
    G|---------------------------------
    D|---------------------------------
    
      G                D                  C
    e|-3-3-------7-7-5-3-5-5-------10-10--8-7-8-8
    B|------3-3----------------3-3---------------
    G|-------------------------------------------
    D|-------------------------------------------
    
                      D  C      G
    e|-3-3--12-12-10-8-10----8-7--5-3-|
    
  • +
    ¡Colabora con nosotros!
    Envíanos tu versión de esta canción

Letra de Milagro de amor
Querrán prohibirme que yo crea
en el milagro de tu amor,
podrán callar mi voz con guerras
pero jamás mi corazón.
Podrán cerrarme tantas puertas
quitarme la respiración,
podrán en mi camino piedras
pero me salvara tu amor.
ESTRIBILLO
Y será tu amor el puerto más seguro
donde quiero anclar mi corazón.
No me vencerán los vientos por que sé
que lo que salvará mi corazón será tu amor.
Querrán dejarme sin certezas
poniendo en duda lo que soy
pero no habrá jamás quien pueda
hacer que dude de este amor.
Podrán cambiarme las quimeras
por realidades sin color
mas no podrán borrar la huella
que fue dejando en mi tu amor.
Estribillo
Estribillo x2




[Milagro de amor chords][Milagro de amor cifra]
© LaCuerda.net · aviso legal · privacidad · es · en · pt · contacto
DINAMICO