Acordes de Guitarra » J »Joe Cuba » Mujer Divina (Tab)

Mujer Divina
Joe Cuba

Letras, Acordes y Tabs para Guitarra, Bajo y Ukulele

  • (A#m - C)
    e|----11-9--11-9--11-9--11-9--9-11-9----8-|
    B|-8--11-11-11-11-11-11-11-11--------11---|
    G|----------------------------------------|
    D|----------------------------------------|
    A|----------------------------------------|
    E|----------------------------------------|
    
    Fm - A# | Gm - C
    Fm - A# | Gm - C
    Fm - A# | Gm - C
    
    
    e|---------------3-3-3--6-6-8--9-9-9-9-9-8--|
    B|--------5-5-5--5-5-5--6-6-8--9-9-9-9-9-8--|
    G|-5-5-5--5-5-5-----------------------------|
    D|-5-5-5------------------------------------|
    A|-3-3-3--3-3-3--3-3-3--6-6-8--9-9-9-9-9-8--|
    E|------------------------------------------|
    
    
  • +
    ¡Colabora con nosotros!
    Envíanos tu versión de esta canción

Letra de Mujer Divina
La primera noche que te vi
yo sabia que eras para mi
jamás otros besos preferí
porque siempre estas en mi.
Mujer divina cómo fascinas
y me dominas el corazón.
Y es por eso que yo soy feliz
porque ahora yo te tengo a ti
prieta linda tú eres para mi
y yo siempre soy de ti.
Mulata, mi prieta,
mi cielo, te quiero, te adoro divina mujer.
Te voy a hacer una estatua, mami
en el parque central
para que pueda todita la gente
pasar por allí e irte a mirar.
Mulata, mi prieta,
mi cielo, te quiero, te adoro divina mujer.
Pero si tú, conmigo, te llegas a portar mal
que yo voy a soltar un escuadrón de palomas
para que puedan volar.
Mulata, mi prieta,
mi cielo, te quiero, te adoro divina mujer.
Jeh jeh jeh jeh...
Mulata, mi prieta,
mi cielo, te quiero, te adoro divina mujer.
Esa mulata sentada en la butaca
pero qué piernas tiene mi mulata!
caridad, caridad, cariyuye, yemaya.
Mulata, mi prieta,
mi cielo, te quiero, te adoro divina mujer.
Te voy a llevar a Puerto Rico
y abajo de la palma voy a besarte
pero no pidas que me case, mami
papeles no voy a firmar.
Mulata, mi prieta,
mi cielo, te quiero, te adoro divina mujer.
Mujer divina cómo fascinas
y me dominas el corazón.
Eh ah, mi mulata
el corazón
cuando bailas el rico cha cha te arrebata
el corazón
tiene mi mulata sandunga y sabrosura
el corazón
que yo me voy para el congo
el corazón
a comerme el sabroso mofongo
el corazón
ay.
º-| ¤ ¤ |-º
º-| LuïS |-º
º-| ¤ ¤ |-º
/
| |

Video de Mujer Divina
[]




[Mujer Divina chords][Mujer Divina cifra]
© LaCuerda.net · aviso legal · privacidad · es · en · pt · contacto