Tablatura de Joan Sebastian: Eso y más
Joan Sebastian
Más allá del sol [2006]
Holaaaa!!!!! aquí les va una de Joan espero que es guste y les sirva




Intro:

Bueno aquí hay dos intros pero tu puedes tocar como te guste mas,
el primero es el intro de la canción original
el segundo es de una presentación de Joan en vivo con algunos arreglos.


Este es el No. 1


Primera parte:                          Segunda parte:

e|--0------2--------2-0h2-----------|--0------2------1-2------|
B|--0/2-2--3------3-------3-0----2--|--0/2-2--3------3-2--2---|
G|---------2----2-------------2--2--|---------2----2------2---|
D|---------0--4------------------2--|---------0--4--------2---|
A|-------------------------------0--|---------------------0---|
E|----------------------------------|-------------------------|


Este es el segundo

Primera parte:                            Segunda Parte

e|--0------2--------2----5------------|--0------2------1-2--------|
B|--0/2-2--3------3----5---5-3/2-0h2--|--0/2-2--3------3-2--2-----|
G|---------2----2---------------------|---------2----2------2-----|
D|---------0--4-----------------------|---------0--4--------2-----|
A|------------------------------------|---------------------0-----|
E|------------------------------------|---------------------------|


ARPEGIO:

Con A Con D e|-------------------|------2--------2---| B|------2--------2---|------3--------3---| G|------2--------2---|----2--------2-----| D|----2--------2-----|--0------0-0-------| A|--0------0-0-------|-------------------| E|-------------------|-------------------|
Con E Con F#m e|-------------------|--------------------| B|------0--------0---|------2--------2----| G|------1--------1---|------2--------2----| D|----2--------2-----|----4--------4------| A|-------------------|--------------------| E|--0------0-0-------|--2------2-2--------|
A Me contaron de Romeo y Julieta y pense que hermoso cuento
D y ahora resulta que es mas grande y mas bello
A esto, esto que por ti yo siento
D Cruzaré los montes, los ríos, los valles,
A por irte a encontrar D|------------| A|--2h4-2-0---| E|------------|
D salvaría tormentas, ciclones, dragones
A sin exagerar. D|------------| A|--4-2-0-0---| E|------------|
D E Por poder mirarme en tus ojos bonitos
F#m y vivir la gloria de estar a tu lado
E porque en mí ya siento que te necesito
D A que me he enamorado.
D E Por poder mirarme en tus ojos bonitos
F#m y vivir la gloria de estar a tu lado
E porque en mí ya siento que te necesito
D A eso y más haré. SE VUELVE A TOCAR EL INTRO QUE ESCOGISTE
D Por asegurar la sonrisa de tu alma
A buscando equidad,
D yo podría empeñar lo más caro que tengo
A que es mi libertad.
D E y sería un honor ay amor ser tu esclavo
F#m sería tu juguete por mi voluntad
E y si un día glorioso en tus brazos acabo
A Qué felicidad.
D E Si sería un honor ay amor ser tu esclavo
F#m sería tu juguete por mi voluntad
E y si un día glorioso en tus brazos acabo
A qué felicidad. SE VUELVE A TOCAR EL INTRO QUE ESCOGISTE PERO LA SEGUNDA PARTE UN POCO MAS LENTA. Cualquier duda este es mi correo manuueel_ctrm.13.07@live.com.mx Esta va dedicada para la niña mas hermosa del mundo TE AMO GÉNESIS!!!!!!
Este fichero es trabajo propio de su transcriptor y representa su interpretación personal de la canción. El material contenido en esta página es
para exclusivo uso privado, por lo que se prohibe su reproducción o retransmisión, así como su uso para fines comerciales.
© LaCuerda.net · aviso legal · privacidad · contacto