Acordes de Guitarra » J »Jesús Vasquez » Bouquet (Tab)

Bouquet
Jesús Vasquez

Letras, Acordes y Tabs para Guitarra, Bajo y Ukulele

  •              Dm                          C                             Dm
    e----------------------10-12-10--------------------8-10-8--8-10-12-10-8-10~-
    B-10-12-10----------10------------8-10-8---------8--------------------------
    G----------12-11-10---------------------11-10-9------------------------------
    D---------------------------------------------------------------------------
    A---------------------------------------------------------------------------
    E---------------------------------------------------------------------------
                C               Bb Ab G
    e-6-8-10-8-6-8~---4-6-8-6-4--6--4--3---
    B----------------------------8--6--5---
    G--------------------------------------
    D--------------------------------------
    A--------------------------------------
    E--------------------------------------
    
    e----------------------10-12-10---------------------------1-3-5-------3-5-7-
    B-10-12-10----------10------------8-10-8---------8--1-3-5-------3-5-6-------
    G----------12-11-10--------------------11-10-9------------------------------
    D---------------------------------------------------------------------------
    A---------------------------------------------------------------------------
    
  • +
    ¡Colabora con nosotros!
    Envíanos tu versión de esta canción

Letra de Bouquet
Estrofa
Las flores que he escogido del jardín
las he hecho un bouquet para mi amor
tiene jazmín del Cabo y tulipán
También claveles rojos de ilusión
pensamiento limita su confín.
y blancas azucenas coloqué
pero también llevo en mi corazón a una mujer
Tus ojos ternura reflejan, me mata tu lindo mirar
Mi nena, me robas la calma y el alma, mi vida tuya será
Tus ojos ternura reflejan, me mata tu lindo mirar
Mi nena, me robas la calma y el alma, mi vida tuya será.
Publicado por Ruben Robles en “Acordes Blanco y Rojo” el 07/11/2013




[Bouquet chords][Bouquet cifra]
© LaCuerda.net · aviso legal · privacidad · es · en · pt · contacto
DINAMICO