Acordes de Guitarra » J »Jesús Adrián Romero » Tu Bandera (Tab)

Tu Bandera
Jesús Adrián Romero

Letras, Acordes y Tabs para Guitarra, Bajo y Ukulele

  •            D            A         Bm           Bm
    e:-----------2-----------0------------2-----------2--
    B:-------3-----3------2----2------3-----3-----3-----3
    G:-----2---2--------2---2-------4---4-------4---4----
    D:---0-----------------------------------------------
    A:----------------0-----------2-----------2----------
    E:---------------------------------------------------
          G           F#m            A
    e:--------3------------2------------0----0--
    B:----3-----3------2-----2------2-----2--2--
    G:--4---4--------2---2--------2---2------2--
    D:---------------------------------------2--
    A:--------------------------0---------------
    E:3------------2----------------------------
    
     D                  A                   Bm
    Como en un país extraño me encontre sin ti
     G                 F#m                 A
    No entendia el idioma ni las cosas que viví
       D                 A                     Bm
    
  •  D (F#)             A (C#)              Bm (D#m)
    Como en un país extraño me encontre sin ti
     G (B)           D/F# (F#/Bb)             A (C#)
    No entendia el idioma ni las cosas que viví
       D (F#)             A (C#)                 Bm (D#m)
    Y corrí a buscar sin ver tu rostro entre la gente
                   G (B)           D/F# (F#/Bb)             A (C#)
    y aun sin conocerte convencido estaba de encontrarte a ti
    G (B)                 D (F#)
         de encontrarte a ti
    
    [CORO]
          G (B)            A (C#)               D (F#)
    Y en medio de mi confusión se alzaba tu bandera
       G (B)              A (C#)             D (F#)      A(C#)      Bm (D#m)
    Señal volaba como el sol diciendome que fuera y a ti te   siguiera
        G (B)                A (C#)         G (B)    D (F#)
    y asi me refugie en la cruz y en tu bendito    amor
    
    
    
  •     G  F#m  Em7  A/C#  E  F#7
    1|--3---2----x----0----0-------
    2|--3---2----3----2----0---3---
    3|--4---2----0----0----0---5---
    4|--5---4----0----x----2---4---
    5|--x---x----2----4----x-------
    6|-----------------------------
    
    Intro:
       D            A            Bm
    1|---------2------------0------------2------------2----
    2|-----3-----3------2-----2------3-----3------3-----3--
    3|---2---2--------2---2--------4---4--------4---4------
    4|-0---------------------------------------------------
    5|--------------0------------2------------2------------
    6|-----------------------------------------------------
       G            F#m          A             A7
    1|---------3------------2------------2---------
    2|-----3-----3------2-----2------2-----0---2---
    3|---4---4--------2---2--------2---2-------0---
    
  •     F#         C#          D#m
    e-|--------2-----------0-----------2-----------2---|
    B-|-----3----3------2-----2-----3----3------3----3-|
    G-|---2---2-------2---2-------4---4-------4---3----|
    D-|-0----------------------------------------------|
    A-|-------------0-----------2-----------2----------|
    E-|------------------------------------------------|
    
        B            A#m         C#
    e-|---------3------------2-----------0-------|
    B-|-----3-----3------2-----2------2----2--2--|
    G-|---0---0--------2---2--------2---2-----2--|
    D-|------------------------------------------|
    A-|---------------------------0--------------|
    E-|-3------------2---------------------------|
    
    I
    
        F#          C#         D#m
       Como en... extraño... sin Ti
    
  • Solo
    
    e------------------------------------------|
    B-11-11/12--12-12--12-12--12-12/14--14-14--|
    G------------------------------------------|
    D------------------------------------------|
    A------------------------------------------|
    E------------------------------------------|
    
    e---------------------|
    B-14-14--12-11h12-11--|
    G---------------------|
    D---------------------|
    A---------------------|
    E---------------------|
    
    e------------------------------------------|
    B-11-11/12--12-12--12-12--12-12/14--14-14--|
    G------------------------------------------|
    D------------------------------------------|
    A------------------------------------------|
    E------------------------------------------|
    
    e----------------------------------------|
    B-14-14--12-11h12-11--11-14-11-----------|
    G------------------------------11h13-11--|
    D----------------------------------------|
    A----------------------------------------|
    E----------------------------------------|
    
    e-----------------------------------------|
    B-6-
  • +
    ¡Colabora con nosotros!
    Envíanos tu versión de esta canción
  • Tutorial
    Tu Bandera - Tutorial oficial de guitarra - Jesus Adrian Romero
    6:45

Letra de Tu Bandera
Como en un país extraño me encontre sin ti
No entendia el idioma ni las cosas que viví
Y corrí a buscar sin ver tu rostro entre la gente
y aun sin conocerte convencido estaba de encontrarte a ti
de encontrarte a ti
Y en medio de mi confusión se alzaba tu bandera
Señal volaba como el sol diciendome que fuera y a ti te siguiera
y asi me refugie en la cruz y en tu bendito amor
Nunca imagine la vida que ahora vivo en ti
Ni la gracia que me diste cuando a ti volvi
Mas ahora se que en ti yo tengo lo que anhelo
tengo vida plena, tengo paz eterna si te tengo a ti
Si te tengo a ti
Y en medio de mi confusión se alzaba tu bandera
Señal volaba como el sol diciendome que fuera y a ti te siguiera
y asi me refugie en la cruz y en tu bendito amor
Acorde desconocido: F#/Bb
Las tabs están Con el capo en el 4° traste
Dios les Bendiga, Hermosa Canción!




[Tu Bandera chords][Tu Bandera cifra]
© LaCuerda.net · aviso legal · privacidad · es · en · pt · contacto