Acordes de Guitarra » J »Jesús Adrián Romero » Tiene tu color (Tab)

Tiene tu color
Jesús Adrián Romero

Letras, Acordes y Tabs para Guitarra, Bajo y Ukulele

  •  C          G
    Y yo que pensaba
                    Am
     que habías olvidado
                 F
    Todas esas cosas
                C
     que un día te pedí
                 Dm
    Todas las canciones
                 G
     que un día te escribí
      C             G
    Y me he dado cuenta
                   Am
    que han estado allí
                F
    Haciendo memoria
              C
    delante de Ti
    
  • G                           C
    Y yo que pensaba que habías olvidado
          Am                    Em
    Todas esas cosas que un día te pedí
         F                      G/G7
    Todas las canciones que un día te escribí
    
    G                          C
    Y me eh dado cuenta que han estado allí
    Am               Em
    Haciendo memoria delante de ti
    F                     G
    No te has olvidado de lo que escribí.
    
    Am              Em
    Pero me conoces y es tu decisión
    F                        G
    Y a su tiempo me darás lo que es mejor
    
    
    
  • C           G/B                 Am
    Y YO QUE PENSABA QUE HABIAS OLVIDADO
                 F                    C/E
    TODAS ESAS COSAS QUE UN DIA TE PEDI
                  Dm7                    Gsus G
    TODAS LAS CANCIONES QUE UN DIA TE ESCRIBI
    C                  G/B                  Am
    Y HOY ME HE DADO CUENTA QUE HAN ESTADO ALLI
                F               C/E
    HACIENDO MEMORIA DELANTE DE TI
                Dm7                   Gsus G
    NO TE HAS OLVIDADO DE LO QUE ESCRIBI
    
    PRE-CORO
    ---------
    F           C/E Dm7          Am
    PERO ME CONOCES Y ES TU DECISION
             Dm7       D/F#          Gsus   F/A G/B
    Y A SU TIEMPO ME DARAS LO QUE ES MEJOR
    
    
  • hola Dios les bendiga este es el
    intro de tiene tu color en guitarra
    tambien tiene los bojos espero que
    les allude.ac
    
    
    e---------7--8--3-|---------7--8-----|-----------------------------
    b-----------------|----------------6-|------------------5----------
    g-----------------|--------|---------|-------------5--7--7--5--4--5
    d----3--|---------|-----0--|---------|---0--------|----------------
    a--3----|---------|---3----|---------|-----0--5--8|----------------
    E-1-----|---------|--0-----|---------|------------|----------------
    bajos              bajos                  bajos
    
    
    e--------10--8--3-|---------7--8----|--------------5--7--8--7--5------
    b-----------------|---------------6-|-----------------------------5--8
    g-----------------|--------|--------|------------------------------
    d----3--|---------|----0---|--------|--0--------|-------------------
    a--3----|---------|--3-----|--------|----0--5--8|-------------------
    E-1-----|---------|-0------|--------|-----------|-------------------
    bajos
  • +
    ¡Colabora con nosotros!
    Envíanos tu versión de esta canción

Letra de Tiene tu color
Y yo que pensaba
que habías olvidado
Todas esas cosas
que un día te pedí
Todas las canciones
que un día te escribí
Y me he dado cuenta
que han estado allí
Haciendo memoria
delante de Ti
No te has olvidado
de lo que escribí
Pero me conoces
y es tu decisión
Y a su tiempo me darás
lo que es mejor
Todos mis anhelos tienen tu color
Tienen el latido de tu corazón
Yo no quiero nada sin tu dirección
Todos mis anhelos son de Ti Señor
Tienen tu cadencia tiene tu pasión
No me importa nada solo tu favor
Dios les bendigas es mi primera transcripcion
que publico de jesus adrian romero saludos
desde venezuela el tigre Edo. Anzoategui




[Tiene tu color chords][Tiene tu color cifra]
© LaCuerda.net · aviso legal · privacidad · es · en · pt · contacto