Acordes de Guitarra » J »Jesús Adrián Romero » Te vengo a bendecir (Tab)

Te vengo a bendecir
Jesús Adrián Romero

Letras, Acordes y Tabs para Guitarra, Bajo y Ukulele

  • INTRO: E  B  A  B  E
    
    E||-------------------------------------------------------------------------------------7-----7----7-----
    B||----7/9-----------5--7/9--5--------5/7/5--4--------2---4/5------------------5-----5----5--------
    G||-----------------------------------------------------------------4/6/4------4----4------4-----------
    D||-------------------------------------------------------------------------------------------------------
    A||-------------------------------------------------------------------------------------------------------
    E||-------------------------------------------------------------------------------------------------------
    
    
    
    E                   B                 A
    Es más que una canción, es más que palabras
    
               B            E
    Es mi corazón rendido a Ti,
    
                    B
    Es lo mejor de mi,
    
    
  • E                    B
     ES MAS QUE UNA CANCION
                  F#m7
     ES MAS QUE PALABRAS
               Bsus4  B      E
     ES MI CORAZON RENDIDO A TI
                    B
     ES LO MEJOR DE MI
                   F#m7
     LO QUE VENGO A DARTE
     A                           Bsus4 B
     YA NO ES SUFICIENTE UNA CANCION
    
    F#m7          C#m
     LO QUE TU ME PIDAS
    A             Bsus4 B
     YO TE QUIERO DAR
    
          A/C#   B/D# E     B/D#       C#m
     //NO VENGO A PEDIR, NO VENGO A BUSCAR
    
  • E                    B
     ES MAS QUE UNA CANCION
                  F#m
     ES MAS QUE PALABRAS
               A     B      E
     ES MI CORAZON RENDIDO A TI
       E             B
     ES LO MEJOR DE MI
                   F#m
     LO QUE VENGO A DARTE
                 A                 B
     YA NO ES SUFICIENTE UNA CANCION  (en el bajo se toca la 6 cuerda
    sola y en el 2° y 3er TRASTE)
    
    F#m          C#m
     LO QUE TU ME PIDAS
    A              B
     YO TE QUIERO DAR
    
       A       B     E              C#m
    
  • MI Am [E/G#] mado Señor. [F#m7]
    [B] Hoy te vengo a bende- [E] cir,
    [B/D#] A ti, [C#m]
    [E/B] A ti. [A2] [A] [Bsus] [B]
    
    Se repite desde el comienzo
    
    Sube medio tono
    
    [Bb2/C] No [Bb/D] vengo a [C/E] pedir [F]
    no [C/E] vengo a buscar [Dm]
    so- [F/C] lo vengo a dar- [Bb] te
    mi o- [F/A] frenda de amor [Csus]
    
    Hoy [Bb/D] quiero [C/E] tocar [F]
    tu [C/E] fiel corazón [Dm]
    y [F/C] darte las gra- [Bb] cias.
    MI Am [F/A] mado Señor. [Gm7] [C]
    / / Hoy te vengo a bende- [F] cir,
    [C/E] A ti, [Dm]
    
  • Esto es sólo la introducción de la alabanza, es lo más simple
    y decente que se puede tocar
    
    e--2h4--|-------4---------------|----------------------|
    B-------|--5-7----5/7--5-4h5-4--|--2-4-4h5-------------|
    G-------|-----------------------|----------4/6-6h8p6-4-|
    D-------|-----------------------|----------------------|
    A-------|-----------------------|----------------------|
    E-------|-----------------------|----------------------|
    
    e--------7-----------7-----------7----|
    B-----5----5------5----5------5----5--|
    G--4-----------4-----------4----------|
    D-------------------------------------|
    A-------------------------------------|
    E-------------------------------------|
    
    
    Seb@stian Martin3z
    Ministerios Vino Nuevo
  • +
    ¡Colabora con nosotros!
    Envíanos tu versión de esta canción

Letra de Te vengo a bendecir
Es más que una canción, es más que palabras
Es mi corazón rendido a Ti,
Es lo mejor de mi,
Lo que vengo a darte,
Ya no es suficiente una canción.
Porque tuve vida, yo te quiero dar.
No vengo a pedir, no vengo a buscar,
Sólo vengo a darte mi ofrenda de amor,
Hoy quiero tocar tu fiel corazón,
Y darte las gracias mi amado Señor,
Hoy te vengo a bendecir, a Ti, a Ti,
SUBE MEDIO TONO (DE E a F)
TODA GLORIA Y HONRA SEA A NUESTRO DIOS!
Saludos al grupo ZOE,en Caucasia (ant)Col.
MUCHAS BENDICIONES!




[Te vengo a bendecir chords][Te vengo a bendecir cifra]
© LaCuerda.net · aviso legal · privacidad · es · en · pt · contacto