Acordes de Guitarra » J »Jesús Adrián Romero » Soy nueva criatura (Tab)

Soy nueva criatura
Jesús Adrián Romero

Letras, Acordes y Tabs para Guitarra, Bajo y Ukulele

  • G#m7  C# ///// 
    G#m7               C#   G#m7  
    Soy nueva criatura lo declara la escritura
                       C#
    El me ha perdonado con su sangre me ha lavado
    C#m7                                  B/C#  C#m7      D#sus4
    Todos mis pecados con su sangre son borra - dos libre soy
    D#7(#9)
    del pecado
    G#m7               C#   G#m7  
    Soy nueva criatura lo declara la escritura
                       C#
    El me ha perdonado con su sangre me ha lavado
    C#m7                                  B/C#  C#m7      D#sus4
    Todos mis pecados con su sangre son borra - dos libre soy
    D#7(#9)
    del pecado
    G#m7 C# G#m7
    Libre   del pecado y la maldad
        Emaj7 F#2/G#  Emaj7
    
  • Intro:
    
    G--16/-|-----11--13--11--13-|--------11--13--11--13-|
    D--17/-|--13----------------|--11h13----------------|
    A------|--------------------|-----------------------|
    E------|--------------------|-----------------------|
    
    G-----11--13--11--13-|--------11--13--11--13-|
    D--13----------------|--11h13----------------|
    A--------------------|-----------------------|
    E--------------------|-----------------------|
    
    G---------11/-|
    D--11h13------|
    A-------------|
    E-------------|
    
    G------------------------------|
    D-------4--6--4--6-------4-----|
    A-----6-------------4h6----66--|
    E--4---------------------------|
    
    G---------------------------------|
    D--------4--6--4--6------4---4h-6-|
    A-----6-------------4h6---6-------|
    E--4------------------------------|
    
    G-----------------------------|
    D-------4--6--4--6-------4----|
    A-----6-------------4h6----66-|
    E--4--------------------------|
    
    G------------------------------|
    D--------4--6--4--6------4---6-|
    A-----6-------
  • +
    ¡Colabora con nosotros!
    Envíanos tu versión de esta canción

Letra de Soy nueva criatura
Soy nueva criatura lo declara la escritura
El me ha perdonado con su sangre me ha lavado
Todos mis pecados con su sangre son borra - dos libre soy
del pecado
Soy nueva criatura lo declara la escritura
El me ha perdonado con su sangre me ha lavado
Todos mis pecados con su sangre son borra - dos libre soy
del pecado
Libre del pecado y la maldad
soy libre El ha roto mis cadenas
Libre, libre para dar mi vida al que me salvó
Libre del pecado y la maldad
soy libre El ha roto mis cadenas
Libre, libre para dar mi vida al que me salvó
Luego se repite lo mismo.




[Soy nueva criatura chords][Soy nueva criatura cifra]
© LaCuerda.net · aviso legal · privacidad · es · en · pt · contacto