Acordes de Guitarra » J »Jesús Adrián Romero » Que seas mi universo (Tab)

Que seas mi universo
Jesús Adrián Romero

Letras, Acordes y Tabs para Guitarra, Bajo y Ukulele

  • C.B.O.F. “EL SHADDAI” ,La letra de esta canción tiene
    mucho que decir y es
    lo que debería ser la realidad de nuestras vidas. Esta canción ministra
    a mi vida de una manera increíble porque hace de Dios el motivo de
     “Nuestro existir”…
     Que seas mi Universo.
    
    
    Estrofa
           G
    Que seas mi universo
                    C                     G
    No quiero darte solo un rato de mi tiempo
                    C       Am          D
    No quiero separarte un día solamente
           G
    Que seas mi universo
                    C                     G
    No quiero darte mis palabras como gotas
                    C         Am          D
    
  • Intro: //G, D/F#, Em7, C9
    
            "EBGDAE"
          G: X30023
       D/F#: X32002
        Em7: X30220
         C9: X3023X
        D/B: X3002X
      Em7/A: X3000X
      Daad9: X3045X
    
    
    G             D/F#       Em7
      Busco un lugar para vivir y descansar
    C9               D/B        Em7/A      Dadd9
    Donde no hace falta ni llamar para llegar
    G                D/F#         Em7
      Donde pueda entrar y compartir la intimidad
                    A7
      Que anhela mi alma
    
  •    Cadd9
    E|- - - - -
    B|- - 3 - -
    G|- - - - -   Use este ejemplo para tocar Cadd9
    D|- 1 - - -
    A|- - 2 - -
    E|- - - - -
    
    Intro: //G,Cadd9//<-se puede repetir mas de una ves
           G
    Que seas mi universo
                    Cadd9                   G
    No quiero darte solo un rato de mi tiempo
                    Cadd9   Am          D
    No quiero separarte un día solamente
           G
    Que seas mi universo
                    Cadd9                 G
    No quiero darte mis palabras como gotas
                    Cadd9       Am          D
    
  • este es el arpegio del principio:
    
    
    ARPEGIO INTRO:
    
    E)-------------------------------------------------
    B)-------------------------------------------------
    G)-------0-2-2-4-2-0------0-2-2-4------------------
    D)-----0----------------2--------------------------
    A)--------------------3----------------------------
    E)--3----------------------------------------------
    
    
    E)-------------------------------------------------
    B)---------------------------------------3---------
    G)-------0-2-2-4-2-0--4-5-5s7-5-4h5p4--2----2------
    D)-----0-------------------------------------------
    A)-------------------------------------------------
    E)--3----------------------------------------------
  •         /G/                    /Cadd9/
    E|-3------------------|------------------|
    A|--------------------|-----3------------|
    D|-----0--------------|---------0--------|
    G|---0---2-2--4--2--0-|-------0---2-2-4--|
    B|--------------------|------------------|
    e|--------------------|------------------|
    
            /G/
    E|-3------------------|-----------------------------|
    A|--------------------|----3-----3--3----3----0-----|
    D|-----0--------------|-----------------------------|
    G|---0---2-2--4--2--0-|-----------------------2--2--|
    B|--------------------|------0h1h3--1----0------3---|
    e|--------------------|-----------------------------|
    
                    G
    que seas mi universo
    
    E|-3------------------|
    
  • +
    ¡Colabora con nosotros!
    Envíanos tu versión de esta canción

Letra de Que seas mi universo
mucho que decir y es
lo que debería ser la realidad de nuestras vidas. Esta canción ministra
a mi vida de una manera increíble porque hace de Dios el motivo de
“Nuestro existir”…
Que seas mi Universo.
Estrofa
Que seas mi universo
No quiero darte solo un rato de mi tiempo
No quiero separarte un día solamente
Que seas mi universo
No quiero darte mis palabras como gotas
Quiero un diluvio de alabanzas en mi boca
"CORO"
Que seas mi universo
Que seas todo lo que siento y lo que pienso
Que seas el primer aliento en la mañana
Y la luz en mi ventana
Que seas mi universo
Que encierres cada uno de mis pensamientos
Que tu presencia y tu poder sean mi alimento
Oh Jesus es mi deseo
Que seas mi universo
II ESTROFA
Que seas mi universo
No quiero darte solo parte de mis años
Te quiero dueño de mi tiempo y de mi espacio
Que seas mi universo
No quiero hacer mi voluntad quiero agradarte
y cada sueño que hay en mi quiero entregarte
"CORO"
Que seas mi universo
Que seas todo lo que siento y lo que pienso
Que seas el primer aliento en la mañana
Y la luz en mi ventana
Que seas mi universo
Que encierres cada uno de mis pensamientos
Que tu presencia y tu poder sean mi alimento
Oh Jesus es mi deseo
Que seas mi universo
Espero que les guste, esta es mi 2da colaboracion,me gustaria que
me escribieran un e-mail para compartir de las bendiciones de Dios
bye, cuidense que Dios los siga bendiciendo cada dia!.
Yunder...




[Que seas mi universo chords][Que seas mi universo cifra]
© LaCuerda.net · aviso legal · privacidad · es · en · pt · contacto