Acordes de Guitarra » J »Jesús Adrián Romero » No es como yo (Tab)

No es como yo
Jesús Adrián Romero

Letras, Acordes y Tabs para Guitarra, Bajo y Ukulele

  •            A              E/G#     F#m7
     No es como yo, aunque se haya hombre
             E             D2  Bm7   Esus4   E
    Y le llame por su nombre, no es como yo
                A              E/G#        F#m7
     No es como yo, aunque en todo fue tentado
             E           D2    Bm7    Esus4  E
    Él es limpio y sin pecado, no es como yo.
    C#        C#7/F   F#m          D         E
    La pureza y santidad son su color de piel.
    
    
    Coro:
    
                A       E/G#         F#m7
     No es como yo, Él santo y es perfecto
           E           D2    Bm7      Esus4     E
    Es sublime y es eterno, no hay comparación.
                A          E/G#          F#m7
     No es como yo, Él trasciende lo que existe
    
  • E     A        E                    F#m
    No es como yo, aunque se haya hecho hombre
     E                F#m     Bm7    E
    Y le llame por su nombre, no es como yo
     A               E                F#m
    No es como yo, aunque en todo fue tentado
     E              F#m        Bm7   E
    Él es limpio y sin pecado, no es como yo.
    Bm             F#m         G        E
    La pureza y santidad son su color de piel.
    
    
    Coro:
    
    A               E          F#m
    No es como yo, Él santo y es perfecto
    E             F#m       Bm7/Bm  E
    Es sublime y es eterno, no hay comparación.
    A               E               F#m
    No es como yo, Él trasciende lo que existe
    
  • A2  E/G#  F#m7(add4)  E  D  A2/C#  Bm7  F#m/A  Esus4  E
    
    
               A2            E/G#       F#m7(add4)
    NO ES COMO YO, AUNQUE SE HAYA HECHO HOMBRE
           E          D2     Bm7       E
    Y LE LLAME POR SU NOMBRE, __NO ES COMO YO
               A2            E/G#       F#m7(add4)
    NO ES COMO YO, AUNQUE EN TODO FUE TENTADO
           E             D2   Bm7       E        E/D  C#sus4
    EL ES LIMPIO Y SIN PECADO, __NO ES COMO YO.
    E    Ddim/F  C#  F#m7            D/F#  E7sus4 (A E7 E)adorno
    LA PUREZA Y SANTIDAD SON SU COLOR __DE PIEL.
    
               A2        E/G#          F#m7 add4
    NO ES COMO YO, ÉL ES SANTO Y ES PERFECTO
         C#m7         D    Bm7          E    D   A/C#
    ES SUBLIME Y ES ETERNO, __NO HAY COMPARACIÓN
    E/B        A2         E/G#     C#/E#   F#m
    NO ES COMO YO, ÉL TRASCIENDE LO __QUE EXISTE
    
  • Intro
    E |----------------------------------------------------|
    a |----------------------------------------------------|
    d |----------------------------------------------------|
    g |----------------------------------------------------|
    b |----5---------------------------5s7-----------------|
    e |------5-4-5-----7-7-5-5t4-4-4-5---------------------|
    
    E |----------------------------------------------------|
    a |----------------------------------------------------|
    d |----------------------------------------------------|
    g |----------------------------------------------------|
    b |--------------------5s7----7s5-5-5---5-3s5-3p2h3----|
    e |----7-7-5-5t4-4-4-5----------------5----------------|
    
    E |----------------------------------------------------|
    a |----------------------------------------------------|
    d |----------------------------------------------------|
    g |---6-4t6-4-2-2s4------------------------------------|
    b |----------------------------------------------------|
    e |--------------------
  • E-----------------------------------------
    B----10-9-10-12-12p10-9h10-9-9-10---------
    G--9------------------------------9/11----
    D-----------------------------------------
    
    E-----------------------------------------
    B--12-12p10-9h10-9-9-10-------------------
    G-----------------------9/11-9h11/7/9-----
    D-----------------------------------------
    
    E-----------------------------------------
    B-----10----------------------------------
    G--9-9----9-7/9-7/6/7-6-4h6p4-2-2/4-------
    D-----------------------------------------
    
    Guit. II
    
       A(add2)  E/G#      F#m7(add4) E
    E-----------------------------------------
    B--------2---------5--------0----------0--
    
  • e|------------------------------------------------|
    B|----10-9-10----12~-12~-10---9h10---9-9-10-------|
    G|--9---------------------------------------9h11--|
    D|------------------------------------------------|
    A|------------------------------------------------|
    E|------------------------------------------------|
    
    e|----------------------------------------------------------|
    b|-----12~-12~-10---9h10---9-9-10------------------10-------|
    G|---------------------------------9h11-97-9-9-9-----9-7h9-|
    D|----------------------------------------------------------|
    A|----------------------------------------------------------|
    E|----------------------------------------------------------|
    
    E|------------------------------------------|
    B|------------------------------------------|
    G|--7-6-7-7-6h7-6---------------------------|
    D|-----------------7-7/9--------------------|
    A|------------------------------------------|
    E|------------------------------------------|
    
  • E----5-4-5-5/7-7-5h7-4-4-5----
    B---5-----------------------5/7-
    G-------------------------------
    D-------------------------------
    A-------------------------------
    E-------------------------------
    
    E---5/7-7-5-5h7-4-4-5-----------
    B--------------------5/7-4/5-3-5
    G-------------------------------
    D-------------------------------
    A-------------------------------
    E-------------------------------
    
    E----5--------------------------
    B---5-5-3/5-2/3-2/3-2-0h2-0-----
    G--------------------------2-2/4
    D-------------------------------
    A-------------------------------
    E-------------------------------
    
  • +
    ¡Colabora con nosotros!
    Envíanos tu versión de esta canción
  • Tutorial
    "No es como yo" JAR - lección de guitarra
    10:50

Letra de No es como yo
No es como yo, aunque se haya hombre
Y le llame por su nombre, no es como yo
No es como yo, aunque en todo fue tentado
Él es limpio y sin pecado, no es como yo.
La pureza y santidad son su color de piel.
No es como yo, Él santo y es perfecto
Es sublime y es eterno, no hay comparación.
No es como yo, Él trasciende lo que existe
Y de majestad se viste, no hay comparación.
Estribillo 2:
No es como yo ,aunque se haya hecho carne
Y mi hermano Él se llame, no es como yo.
No es como yo, en el cielo esta su trono
Su poder lo llena todo, no escomo yo.
La creación toda rodilla doblará a sus pies.
Bueno esta cancion es muy buena nos hace ver que JESUS
es nuestro cuate pero el sobre todo es DIOS y aunque
por amor se haya hecho hombre el el Dios de todo lo
que existe.Cualquier aporte escribanme a
mi mail Dios los bendiga.Grcias mariano por tu colaboracion Dtb




[No es como yo chords][No es como yo cifra]
© LaCuerda.net · aviso legal · privacidad · es · en · pt · contacto