Acordes de Guitarra » J »Jesús Adrián Romero » Mi Herencia (Tab)

Mi Herencia
Jesús Adrián Romero

Letras, Acordes y Tabs para Guitarra, Bajo y Ukulele

  •   Intro: G - Am7 - Dadd11 - Am7  (2 veces)
             C - Dadd11 - C (cuando hagas el Am7 inmediatamente haces el C
                              Y te deslizas hacia el lado hasta el Dadd11 y
                                              Vuelves al C)
                    El intro se repite 2 veces.
    
    Verso. I
    
          G      Am7   Dadd11   Am7
           Eres Tú mi herencia, Mi porción
          G       Am7    Dadd11   Am7
           Lo que había anhelado, Lo mejor
          G     Am7     Dadd11    Am7
           Eres Tú  la  parte     que escogí
          G     Am7   Dadd11   Am7
           El mejor   Regalo   que recibí
          Em7         A7          C
           Eres Tú mi complemento
           MI mejor momento
                G   Am7   Dadd11   Am7   -  C  Dadd11  C
    
  • Intro: F# B C#sus2 B  2X
    
    F# B C#sus2 B (SE SIGUE ESTA PROGRESIÓN CASI TODA LA ESTROFA)
      Eres tu mi herencia, mi porción
    
      Lo que había anhelado, lo mejor
    
      Eres tu la parte, que escogí
    
      El mejor regalo que recibí
    D#m(add2)     C#sus2
      Eres tu mi complemento
     B           C#sus2
      Mi mejor momento
             F# B C#sus2 B
      Eres tu
    
      Coro:
        F#            C#sus2         D#m(add2)
      //Eres el mejor amigo que pude tener
    
  • G/B
    ---|-----|-----|-----||||||||||||
    ---|-----|--O--|-----||          ||
    ---|-----|-----|-----|||||||||||||||
    ---|-----|-----|-----|||||||||||||||
    ---|--O--|-----|-----||          ||
    ---|-----|-----|-----||||||||||||
    
    A7
    ---|-----|-----|-----||||||||||||
    ---|-----|-----|-----||          ||
    ---|-----|--O--|-----|||||||||||||||
    ---|-----|-----|-----|||||||||||||||
    ---|-----|--O--|-----||          ||
    ---|-----|-----|-----||||||||||||
    
    Dadd2/F#
    ---|-----|--O--|-----||||||||||||
    ---|-----|-----|-----||          ||
    ---|-----|-----|-----|||||||||||||||
    
  • Este es el solo de la canción "Mi herencia",
    compuesto por Kiko Cibrian. La guitarra está afinada en Eb,
    así como en toda la canción.
    
    eb|----------------------------------------------------------------------
    Bb|----------------------------------------------------------------------
    Gb|--------4-3h4--5------7----------------------7/9/7--5------7----------
    Db|-----5--5-4h5-----5/7----7/5---5h7p5------5--7/9/7-----5/7----7/5-----
    Ab|-5h7-------------------------7--------5h7-------------------------7-5-
    Eb|----------------------------------------------------------------------
    
    ----------------------------------7-8-7-9----------7---------------------
    ----------------------------------8-8-8-10h11p10/8-8-9/10-7/9------------
    ----------------7h9p7-9/12--9/12--7-7-7-9----------7-----------7/9/7-----
    -7---5--5/7h8h9-------------9/12---------------------9/10-8/9--5/7/5-----
    ---5---------------------------------------------------------------------
    ----------------------------------------------
  • +
    ¡Colabora con nosotros!
    Envíanos tu versión de esta canción

Letra de Mi Herencia
Eres tu mi herencia, mi porción
Lo que había anhelado, lo mejor
Eres tu la parte, que escogí
El mejor regalo que recibí
Eres tu mi complemento
Mi mejor momento
Eres tu
//Eres el mejor amigo que pude tener
En mi oscuridad vi tu amanecer
Volvi a nacer
Es mejor estar un día
D#m(add2)
Junto a tu altar
Que toda una vida sin tu amistad
Y en otro lugar//
Eres como el viento, como el sol
Has llenado todo lo que soy
Eres paz en medio del dolor
Eres melodía al corazón
Eres sombra en el desierto
Agua y alimento
Eres tu
HOLA ROLA ESTA MUY PADRE DIOS LES BENDIGA ATTE: DAN, APODADO DAGAN




[Mi Herencia chords][Mi Herencia cifra]
© LaCuerda.net · aviso legal · privacidad · es · en · pt · contacto