Acordes de Guitarra » J »Jesús Adrián Romero » Mi corazón te canta (Tab)

Mi corazón te canta
Jesús Adrián Romero

Letras, Acordes y Tabs para Guitarra, Bajo y Ukulele

  • LA orignal.
    
    intro
    
    Aadd2/Amaj7/Dadd2/Dm9
    
    Aadd2      Amaj7  A7                 Dadd2
      Preciosa sangre,   que mi vida cambio
           Dm9                A/E
    Mis pecados mis culpas lavo
                  B7/D#              E7sus4 E
    Ha quedado atras el pasado sin Dios
    Aadd2          Amaj7
      Fue en esa cruz
                 Dadd2
    Donde la historia cambio
              Dm9                 F#m7(add4)
    Donde mi vida tomo otro sentido
                    B       E7sus4    Dadd2 Dm9
    Donde yo encontre la razon de vivir
    
  •  (Add2  A¦¤7  A7 Dadd2 Dm9)x 2
    
    Solo voy a poner las tres cuerdas de abajo y este punteo empieza despues de
    hacer una vuelta de Add2  A¦¤7  A7 Dadd2 Dm9.
    
    E-------5-3-5s7s2-----3-5-5s7-8-5h7-5--------
    B-----3-----------3-5------------------------
    G-4-5---------------------------------7s9-7--
    
    
    
    Add2         A¦¤7  A7                 Dadd2
       Preciosa sangre  que mi vida cambio
             Dm9                 A/E
      Mis pecados, mis culpas lav¨®
                   B7/D#               E7sus4 E
     Ha quedado atr¨¢s el pasado sin Dios
     Aadd2          A¦¤7              Dadd2
       Fue en esa cruz  donde la historia cambi¨®
              Dm9                  F#m7(add4)
    
  • Intro: (G# - Cm - C#sus2- C#m - C#sus2- C#m)x 2
    
    Estribillo:
    
    G#            Cm  G#9              C#sus2
       Preciosa sangre   que mi vida cambio
    C#m                        G#
      Mis pecados, mis culpas lavó
                 B9b      C#sus2    D#sus2
     Ha quedado atrás el pasado sin Dios
     G#            Cm              C#sus2
       Fue en esa cruz  donde la historia cambió
             C#m                 Fm7
    Donde mi vida  tomó otro sentido donde
            B9b    C#sus2   C#m   C#sus2-C#m
    Yo encontré la razón de vivir
    
    Coro:
    
            G#      Cm         C#sus2              C#m
    
  • ahi les mando esta cancion de Adrian Romero, es mi primera
    transcripcion pero creo que esta bien escrita.
    Dios les bendiga.
    
    intro
    
    e ----8-----8---9---8---9
    B -9-----8---------------
    G -----------------------
    D -----------------------
    A -----------------------
    E -----------------------
    
    e ------------------------------------------------------------
    B ---------11-9---11/13----------9-11-11/13-14-11/13-11-------
    G -8-10-12--------------12--8-10------------------------8h10-8
    D ------------------------------------------------------------
    A ------------------------------------------------------------
    E ------------------------------------------------------------
    
    Preciosa sangre...
    
    ...donde yo encontre la razon de vivir -8--9--8--6
                                           -----------
                                           -----------
                                           -----------
                                           -----------
                                           -----------
    
    Jesus
  • Intro: (G# - Cm - C#sus2- C#m - C#sus2- C#m)x 2
    
    E ----8-----8---9---8---9
    B -9-----8---------------
    G -----------------------
    
    E -------------------------------------------------------------
    B ---------11-9-11s13-8-------9-11-11s13-14-11s13-11-----------
    G -------8---------------8-10----------------------------------
    D -10-11---------------------------------------------13s15s13--
    A -------------------------------------------------------------
    E -------------------------------------------------------------
    
    Estribillo:
    
    G#            Cm  G#9              C#sus2
       Preciosa sangre   que mi vida cambio
    C#m                        G#
      Mis pecados, mis culpas lavó
                 B9b      C#sus2    D#sus2
    
  • +
    ¡Colabora con nosotros!
    Envíanos tu versión de esta canción

Letra de Mi corazón te canta
Aadd2/Amaj7/Dadd2/Dm9
Preciosa sangre, que mi vida cambio
Mis pecados mis culpas lavo
Ha quedado atras el pasado sin Dios
Fue en esa cruz
Donde la historia cambio
Donde mi vida tomo otro sentido
Donde yo encontre la razon de vivir
//Jesus, Jesus
Bm7(add4)
Mi corazon te canta
Mi corazon te canta
Jesus.//
Dios les bendiga.




[Mi corazón te canta chords][Mi corazón te canta cifra]
© LaCuerda.net · aviso legal · privacidad · es · en · pt · contacto