Acordes de Guitarra » J »Jesús Adrián Romero » Manda Señor (Tab)

Manda Señor
Jesús Adrián Romero

Letras, Acordes y Tabs para Guitarra, Bajo y Ukulele

  • G                   D/F#
    juntos venimos a ti señor
    Cadd2                  G
    para pedrite una vez mas
    G                   D/F#
    Te manifiestes con tu prsencia
    Cadd2                     G
    y nuestra sed vengas a saciar
            Cadd2    G
    como un diluvio ven
            Cadd2    D   Cadd2
    sobre nosostros hoy
    
    coro:
           G    Cadd2          G  Cadd2
    manda señor fuego del cielo
                 G         Cadd2
    que venga y consuma
               D    Cadd2
    toda la maldad
    
  •  D#7  Bmaj9  F#  C#  D#m7  B2  F#  C#
    (Piano)
    
    F#  G#m7      B2    C#7sus4  F#  G#m      B2    C#7sus4 
      Je    oh oh oh                 Je    oh oh oh         
    
    F#  G#m7      B2  C#   D#m7 B2 C#sus4
      Je    oh oh oh
    
    F#2                 C#sus4
     Juntos venimos a ti      señor
         B2                 F# G#m7sus4
    para pedirte una vez mas
    F#                   C#sus4                
     Te manifietas con tu     prececia 
              B2
    y nuestra sed vengas a saciar
    F#          G#m7sus4       F#2/A#  
     Como un dilu-------vio ven
      B2                C#sus4   C#5 
    
  •       Que tal:
    
          Esta alabanza es una de mis preferidas y es por eso que les 
    doy las figuras; lo saque rápido y espero que no tenga defectos
    grandes y notorios. Espero les sea util y de gran bendición...
    
    
    ::Intro Solo piano::
    
    ::Intro::
    
    E |-2----2--4--------------------------2---2--4------------------------2--
    A |-----------------2---2-----2--4------------------2---2-----2--4--------
    D |-----------------------------------------------------------------------
    G |-----------------------------------------------------------------------
    B |-----------------------------------------------------------------------
    
    E |--2—4------------------------------------------
    A |----------2--2---2--4----6--6---4----6--6--6---
    D |-----------------------------------------------
    G |-----------------------------------------------
    B |-----------------------------------------------
    
    
    ::Verso 1::                ::2 Veces::
    
    E |---2----2--2------------------------------------2-
  • +
    ¡Colabora con nosotros!
    Envíanos tu versión de esta canción

Letra de Manda Señor
juntos venimos a ti señor
para pedrite una vez mas
Te manifiestes con tu prsencia
y nuestra sed vengas a saciar
como un diluvio ven
sobre nosostros hoy
manda señor fuego del cielo
que venga y consuma
toda la maldad
manda señor fuego del cielo
un nuevo denuedo
y mas santidad
verso 2:
juntos venimos a ti señor
necesecitamos que avives hoy
el fuego santo de tu presecencia
que arda siempre en mi corazon
toca mi ser señor
llename de fervor
coroX3-puente-corox4
acordes:
CENTRO CRISTIANO CONQUISTADOR TLAQUITENANGO




[Manda Señor chords][Manda Señor cifra]
© LaCuerda.net · aviso legal · privacidad · es · en · pt · contacto