Acordes de Guitarra » J »Jesús Adrián Romero » Libertad (Tab)

Libertad
Jesús Adrián Romero

Letras, Acordes y Tabs para Guitarra, Bajo y Ukulele

  • Bajo:   *re RE DO RE FA SOL RE RE SOL LA DO*
    
    1)             Dm *
    Me has dado libertad
               Dm *
    Salí de mi prisión
            C/D              F
    Tu gran poder en mi rompió
                     Bb         Em    A 
    Las cadenas de mi gran opresión
    
    1) Me has dedo salvación
    Cautivo ya no soy
    No vivo mas condenación
    He sido libre por tu gran amor
    
    Dm                 Bb  C
    Libertad tu me has dado
    Dm                 C/G
    Libertad de mis cadenas
    
  •                  Dm 
    Me has dado libertad, salí de mi prisión 
             Dm            Eb/F 
    tu gran poder en mi rompió 
             Bb         G/A       A 
    las cadenas de mi gran opresión 
                      Dm 
    Me has dado salvación, cautivo ya no soy 
                       Eb/F 
    no vivo mas en condenación 
             Bb           G/A    A          
    he sido libre por tu gran amor 
      
         Dm          Bb    C/A               
    Libertad tu me has dado 
           Dm             G 
     libertad de mis cadenas 
          Bb            F 
    libertad no soy esclavo 
              C          G/E    A 
    
  • Saludos a todos los de Iglesia Union e Iglesia Monte Horeb de Tijuana =D
    
    (/)Slide (h)Hammer On (p)Pull Off
    (b)Bend (r)Release (v)Vibrato
    
    E|--8h10--8-----------------------------------------
    B|-----------8h10--8-6--------8/10--8v------8/10-8v-
    G|----------------------7--5------------5-7---------
    D|--------------------------------------------------
    A|--------------------------------------------------
    E|--------------------------------------------------
    
    E|------8-------------------------8-----
    B|---------8/10v--10/8--6--8--6v--------
    G|5--7----------------------------------
    D|--------------------------------------
    A|--------------------------------------
    E|--------------------------------------
    
    E|-------------------------------------------------------------
    B|--8/10v-----10-----------8-----------------------------------
    G|---------9------9--8--7-----7----------------------7--10--7--
    D|-------------------------------10--9--8--7--8--10------------
    A|-------------------------------------
  • ESTO ES EL SOLO DE FAX
    
    E-8H10-8-5---------------------------8-5---------8-5
    B---------8-6---8S10-8----8S10-8---------8-6-8-6-----
    G------------7-5-------7-5-------7-5-----------------
    
    
    E---5--------------------------------------------5-----3
    B-5--5-4-3------------3-6-3-------------3-6-1-3---6-----5
    G---------6-5-3-2-3-5-------------2-3-5-------------7----5
    D--------------------------5-4-3-5------------------------5-7-5-3-2
    
    
    E-----------------------3-5-8-10--10^12-10^1210^12--
    B----------------2-3-5----------------------------------
    G---------2-3-5----------------------------------------
    D-0-2-3-5----------------------------------------------
    
    
    E-10-8-5------------------5-8
    B--------8-6----------6-8----
    D------------5-7--5-7--------
    
    NO ESTOY TODAVIA SEGURO DEL FINAL PERO SI LOGRO DESIFRARLO SE LOS PASO
    DIOS LES BEDIGA  HASTA LA PROXIMA
  • Hola como están, aquí está esta alabanza que esta bien original
    
    Intro I:
    Los slide se hacen con el tiempo del teclado
    en el teclado son 2 compases por eso 2 slide
    B------------------|-------------------|
    E----17--s--3------|-----17--s--3------|
    A------------------|-------------------|
    D------------------|-------------------|
    G------------------|-------------------|
    Si tocas bajo de 5, has el slide en B, se oye bien.
    Luego entran todos los instrumentos.
    La figuras del Intro II:
    B---------------------------|----------------------------|
    E---------------------------|----------------3--4--5-----|
    A--5--5----3---5--3---------|--5-5----3--5---------------|
    D--------------------3---5--|----------------------------|
    G---------------------------|----------------------------|
    3 veces
    
    B-----------------------|
    E-----------------------|
    A--5-5-5---3---5--------|
    D-----------------------|
    G-----------------------|
    
    Estrofa:
    B---------------------------|--------------
  • +
    ¡Colabora con nosotros!
    Envíanos tu versión de esta canción

Letra de Libertad
Me has dado libertad, salí de mi prisión
tu gran poder en mi rompió
las cadenas de mi gran opresión
Me has dado salvación, cautivo ya no soy
Eb/F
no vivo mas en condenación
he sido libre por tu gran amor

Libertad tu me has dado
libertad de mis cadenas
libertad no soy esclavo
soy tan libre puedo casi volar
Libre soy en Jesús libre por su cruz
he visto en el la luz porque no vienes tu
Otro canto para Dios




[Libertad chords][Libertad cifra]
© LaCuerda.net · aviso legal · privacidad · es · en · pt · contacto