Acordes de Guitarra » J »Jesús Adrián Romero » Heme Aquí (Tab)
  • Letra y Acordes
    C#           G#
      La mies es mucha
    A#m              Fm
      Hay gran necesidad
    F#           C#             G#
      Y pocos obreros al campo van.
    
    C#               G#
      Hoy muchos se pierden
    A#m               Fm
      Viven sin dirección
    F#            C#            G#   (G#7)
      Vagan como ovejas sin pastor.
    
    
    CORO:
    
      C#      G#   A#m           F#
    //Heme aquí...    envíame a mi
      C#      G#   A#m           F#
    
  • Tablatura
    e -----------------------0-----0-------3---3---3-3h5-3-------------
    B --1----3----5----6---------1----3p5------------------0--------0p1
    G ----0----0----0----0-----0-----------------0-----------0----2----
    D -----------------------------------------------------------------
    A --3----2----3----5-----3----------------------------------0------
    E -----------------------------------------3-----------------------
    
    e -----0------------0--------------1----------------0--------------
    B ---1---1--------0---0----------1---1------------1---1---1------3-
    G -2-------2----0-------0------2-------2--------0-------0------0---
    D -----------------------------------------------------------------
    A ----------------------------------------0p2p3--------------------
    E ------------0------------0-1-------------------------------3-----
    
    e -3--------------3------
    B ---3---3------3---3---3
    G -----0------0-------0--    Se repite otra vez toda la transcripción
    D -----------------------    anterior y luego va lo siguiente.
    A -----------------------
    E ----------3------------
    
  • +
    ¡Colabora con nosotros!
    Envíanos tu versión de esta canción

Letra de Heme Aquí
La mies es mucha
Hay gran necesidad
Y pocos obreros al campo van.
Hoy muchos se pierden
Viven sin dirección
Vagan como ovejas sin pastor.
//Heme aquí... envíame a mi
Heme aquí... envíame a mi
Yo iré por aquellos
Que vagan sin ti //
Envíame a mi...
Yo iré...
La mies es mucha...
// Heme aquí... //
Punteo
// Heme aquí... //.
Id y predicad este Evangelio por todo el Mundo.



© LaCuerda.net · aviso legal · privacidad · contacto
DINAMICO