Acordes de Guitarra » J »Jesús Adrián Romero » Espérame (Tab)

Espérame
Jesús Adrián Romero

Letras, Acordes y Tabs para Guitarra, Bajo y Ukulele

  • A        B           E   G#m7
      Espérame por la mañana
    A       B               C#m7
      antes de que salga el sol
          G#m7              A
    antes que comience el día
            F#m7       Bsus4 B E/G#
    quiero darte mi canción
    
    A        B            E    G#m7
      Espérame cuando las aves
    A           B    G#7/C C#m7
      aun no empiezan a cantar
           G#m7            A
    cuando todo esta en silencio
          F#m7            Bsus4 B
    yo contigo quiero hablar
    
    Coro:
           E        B/D#
    
  • Intro: A-B-C#m
    
    
    A      B           E   A      B            C#m
    Espérame por la mañana antes de que salga el sol
    
        G#m                  A          F#m       Bsus4 B  E
    Antes que comience el día quiero darte mi canción
    
    A      B             E   A        B          C#m
    Espérame cuando las aves aun no empiezan a cantar
    
          G#m              A            F#m           Bsus4  B
    Cuando todo esta en silencio yo contigo quiero hablar.
    
    
    CORO
    
          E          B            C#m
    Espérame luz de mi corazón, espérame
    
  • A            E    G#m   A      B            C#m
     Espérame por la mañana antes de que salga el sol
    
        G#m                  A          F#m       Bsus4 B
    Antes que comience el día quiero darte mi canción
    
    A      E             G#m   A         B          C#m
     Espérame cuando las aves   aun no empiezan a cantar
    
           G#m             A           F#m          Bsus4  B
    Cuando todo esta en silencio yo contigo quiero hablar.
    
    
    CORO:
    
          E          B            C#m
    Espérame luz de mi corazón, espérame
    
    A                F#m        Bsus4 B
    Estrella de la mañana te quiero ver
    
  • e|---------7--------7---------7-------|---------|
    B|-------0--------0---------0---------|---------|
    G|--8/9------8/9-------8/9-------9-8--|--9---8--|
    D|------------------------------------|---------|
    A|--0--------7---------9--------------|--11--9--|
    E|------------------------------------|---------|
                                                 C#m7*
    e|---------7--------7---------7-------|    e|-----|
    B|-------0--------0---------0---------|    B|--5--|
    G|--8/9------8/9-------8/9-------8-9--|    G|--4--|
    D|------------------------------------|    D|--2--|
    A|--0--------7---------9--------------|    A|--4--|
    E|------------------------------------|    E|-----|
    
    A2      B           C#m7* G#m7 B A
      Espérame por la mañana
          B               C#m7
    antes de que salga el sol
           A               F#m7
    antes que comience el día
    
  •        A        B       C#m7
        e|-------3--------3--------3---------|
        B|-0h1------0h1------0h1-----1-0-1-0-|
        G|-----0-----------------------0---0-|
        D|-3------------0--------2-----------|
        A|-------------------0-----------0---|
        E|----------3------------------3-----|
    
           A        B       C#m7
        e|-------3--------3--------3-----0-|
        B|-0h1------0h1------0h1-----3-----|
        G|-----0---------------------------|
        D|-3------------0--------2-----2---|
        A|-------------------0-------------|
        E|----------3----------------------|
    
      Guitarra II:
    
        D|-----7s9------7s9------7s9--------|
        A|-6s7------6s7------6s7-----9---11-|
    
  • e------7-------7----------7---------------------------
    B---------------------------------------------5---4---
    G--8h9-----8h9-------8h9-------8---8------------------
    D---------------------------------------------7--4----
    A--0-------7-----------------------9------------------
    E--------------------9--------------------------------
    
    e------7---------7--------7---------------------------
    B-----------------------------------------------------
    G--8h9------8h9-------8h9------8--8/13----------------
    D-----------------------------------------------------
    A--0--------7-----------------------------------------
    E---------------------9-------------------------------
    
    
    Aadd2    B7          E   G#m7
      Espérame por la mañana
    
    e-----------
    B--4--5--4--
    
  •  LA tablatura..
    
    Introduccion:
    
    e--------3----------3--------3-------------------
    B--0h1--------0h1------0h1---------0h1-0---1-0---
    G------0----------0--------0---------------0-0---
    D--3-------------------0-------------------2-0---
    A------------------------------------------------
    E-------------3----------------------------------
    
    e--------3----------3--------3-------------------
    B--0h1--------0h1------0h1-------1h3s5-----------
    G------0----------0--------0---------------------
    D--3-------------------0-------------------------
    A------------------------------------------------
    E-------------3----------------------------------
    
    Estrofa:
    Verso1
    
  •    HOLA SALUDOS A TODOS ESTA ES MI SE GUNDA COLABORACION ESPERO
       LES AYUDE:
    
       ASI SE REPRESENTA:
    
       A8            Eb,E,B
     TECLAS GRAVES    TECLAS AGUDAS
    
      AQUI LAS TECLAS GRAVES SE TOCAN CON OCTAVA ES DECIR SI SE TOCA
    
      A8 ES DE A a A  IGUAL SI SE TOCA B ES DE B a B EN TODOS LOS
    
     ACORDES GRAVES  EN LA INTRO LAS TECLAS AGUDAS VAN TECLA POR
    TECLA .
    
       INTRO:
    
         A8             Eb,E,B
    
         B8             Eb,E,B
    
         E8             Eb,E,B,E,Eb,E,Eb,E,Eb
    
    
         A8             Eb,E,B,B,G*(AGUDO),F*(AGUDO)
    
         B8             EB,E,B,Eb(AGUDO),C*(AGUDO)
    
         E8             Eb,E,B,F*,G*
    
    
      NOTA: EL SIGNO * SIGNIFICA SOSTENIDO
    
     AL FINAL EL INTRO SE TOCAN LAS TERS NOTAS JUNTAS PARA ENTRAR
     A LA ESTROFA  (Eb,E,B)COMO ACORDE :E/G*
    
     A     B           E    G*m7
     ESPERAME POR LA MAÑANA
    A      B               C*m
     ANTES DE QUE SALGA EL SOL
            G*m             A
     ANTES QUE COMIENZE EL DIA
              F*m        Bsus4  B   E/G*
     QUIERO DARTE MI CANCION
    
       A    B            E    G*m7
  • +
    ¡Colabora con nosotros!
    Envíanos tu versión de esta canción
  • Tutorial
    HD
    "Espérame" Jesús Adrián Romero (Guitarra Instrumental)
    3:50

Letra de Espérame
Espérame por la mañana antes de que salga el sol
Antes que comience el día quiero darte mi canción
Espérame cuando las aves aun no empiezan a cantar
Cuando todo esta en silencio yo contigo quiero hablar.
Espérame luz de mi corazón, espérame
Estrella de la mañana te quiero ver
Espérame dueño de mi amor espérame
Serás mi primera cita ahí estaré.
Espérame desde temprano yo no quiero el dia empezar
Sin estar en tu presencia sin saber que cerca estas
Espérame que necesito tu mirada sobre mi
Llenas todo mis anhelos solo así puedo vivir.




[Espérame chords][Espérame cifra]
© LaCuerda.net · aviso legal · privacidad · es · en · pt · contacto