Acordes de Guitarra » J »Jesús Adrián Romero » El brillo de mis ojos (Tab)

El brillo de mis ojos
Jesús Adrián Romero

Letras, Notas, Punteos, Tablaturas y Acordes de Guitarra (Tabs & Chords)

  • Letra y Acordes
    Intro: Bm D G
    
      Bm        D           G
    //Eres el brillo de mis ojos, claridad
    Bm          D              G
    Lo que a mi mente trae descanso y libertad
    Bm        D              G
    Guardo silencio y puedo oír en mi interior
    Bm      D             G
    Esas palabras que me dicen tuyo soy
         Bm D G (x2)
    Solo tú//
    
    F#m               A
    Eres el agua que quita mi sed
    E                       Bm
    Que me refresca y me restaura otra vez
    F#m                 A
    El que me llena, me da plenitud
    E                    Bm
    
  • Letra y Acordes
    E)----------2---2---------   E)-------7-7-10-10-9-----7-7-10-10-9-2
    B)--3--3------3---------   B)------------------------------------
    G)---4--4-----------4---4-   G)------------------------------------
    D)----------------5---5---   D)------------------------------------
    A)------------------------   A)------------------------------------
    E)------------------------   E)------------------------------------
    
    
    Bm       D              G
     Eres el brillo de mis ojos claridad
    Bm              D          G
     lo que a mi mente trae descanso y libertad
    Bm         D              G
     guardo silencio y puedo oir en mi interior
    Bm       D             G
     esas palabras que me dicen tuyo soy
           Bm-D-G
    solo tu
            Bm-D-G
    solo tu
    
  • Letra y Acordes
    INTRO: ////Bm  D G(add2)////
    
     Bm        D            G(add2)
    //Eres el brillo de mis ojos claridad
    Bm           D            G(add2)
    Lo que a mi mente trae descanso y libertad
    Bm        D              G(add2)
    Guardo silencio y puedo oír en mi interior
    Bm      D            G(add2)
    Esas palabras que me dicen tuyo soy
         Bm D G(add2)
    Solo tú
         Bm  D G(add2)
    Solo tu//
    
    Coro
    
    F#m               A
    Eres el agua que quita mi sed
    E                       Bm
    
  • Tablatura
       Bm        D      G               Bm      D       G
    e-|----------0---1--------------------------0---0---5--5-8--8-7-5-|
    B-|-1---1----1---0------------------1---1---1---1-----------------|
    G-|-2---2------------2---2-2---2-2--2---2-------------------------|
    D-|---2---2----2---2---3--------------2---2---2---2---------------|
    A-|-0--------3---------------3------0-------3---------------------|
    E-|------------------1--------------------------------------------|
    
    
    Bm        D           G
      Eres el brillo de mis ojos claridad
    Bm             D             G
      lo que a mi mente trae descanso y libertad
    Bm           D              G
      Guardas silencio y puedo oir en mi interior
    Bm        D             G
      esas palabras que me dicen tuyo soy
           Bm  D   G
      Solo tu,
           Bm  D   G
    
  • Tab p/Bajo
    bueno les voy a enceñar este tema que es facil en el bajo,
    
    Intro: 0:08seg
    G|--------------------------------
    D|---5s9--------------------------
    A|--------------10---------------- x2
    E|-------10-10--------------------
    
    Verso 1:''eres el brillo...''
    G|--------------------
    D|---9----------------
    A|-----------10------- x4
    E|-----10-10----------
    
    Verso 2:''solo tu...'''
    G|-------------------------------------
    D|-------------------------------------
    A|--2-2-2-2-5-5-5-5--------------------
    E|------------------3-3-3-3-3-3-3------
    
    Verso 1
    Verso 2
    Coro:''eres el agua...''
    G|----------------------------------------------------------------
    D|--4(8)--7(6)------------4(8)-7(6)-------------------4(8)-7(6)---
    A|-------------7(8)--2(6)-----------7(8)-2(6)-5(10)------------7--
    E|----------------------------------------------------------------
    
    Verso 2
    Verso 1
    Verso 2
    Coro x2
    Verso 2
    
    
    esa es la cancion espero que les sea de ayuda!
    cualquier consulta/sugerencia les dejo mi mail
    bassesmen@hotmail.com s
  • +
    ¡Colabora con nosotros!
    Envíanos tu versión de esta canción

Letra de El brillo de mis ojos
//Eres el brillo de mis ojos, claridad
Lo que a mi mente trae descanso y libertad
Guardo silencio y puedo oír en mi interior
Esas palabras que me dicen tuyo soy
Eres el agua que quita mi sed
Que me refresca y me restaura otra vez
El que me llena, me da plenitud
Me da descanso y me muestra la luz
Del camino a seguir
Si es que quiero vivir otra vez
Eres el dueño de mi vida, eres mi paz
El que completa cada sueño, cada plan
Si me faltaras soy un barco sin timón
Son tus palabras mi compás, mi dirección
Eres el agua que quita mi sed
Que me refresca y me restaura otra vez
El que me llena, me da plenitud
Me da descanso y me muestra la luz
Del camino a seguir
Si es que quiero vivir otra vez
Eres el agua que quita mi sed
Que me refresca y me restaura otra vez
El que me llena, me da plenitud
Me da descanso y me muestra la luz
Del camino a seguir
Si es que quiero vivir otra vez



© LaCuerda.net · Aviso Legal · Privacidad