Acordes de Guitarra » J »Jesús Adrián Romero » De ti dependo (Tab)

De ti dependo
Jesús Adrián Romero

Letras, Acordes y Tabs para Guitarra, Bajo y Ukulele

  • Intro: F# D#m(add2) B2 C#sus4
    
    F#                              D#m(add2)
     Me he vuelto dependiente de tu corazón
    
     Y de tu amistad
    Bm9                               C#sus4
     Me he vuelto dependiente de tu dirección
    
     En mi caminar
    F#                                     D#m(add2)
     No hay nada que me llene como lo haces tu
    
     Eres mi diario pan
    Bm9                                 C#sus4
     Tu eres la razón de cada sueño en mi
    
     Eres mi verdad
    
     Coro:
    
  • F# como E
    B2 como A2
    
    Acordes desconocidos:
    
       D#m7       Bm9      C#sus4
                 x
      EADGBE     EADGBE    EADGBE
      068800     007700    046600
    
    
    Intro: F# D#m7 B2 C#sus4
    
    F#                                   D#m7
      Me he vuelto dependiente de tu corazón
    
     Y de tu amistad
    Bm9                                    C#sus4
       Me he vuelto dependiente de tu dirección
    
    
  •     F#        D#m7       Bm9
    
    e-|-2---1-----2---1-------------------|
    B-|--------2---------2---0---2---2/4--|
    
       C#sus4                             F#
    
    e-|------4--4/6--4-2------4--4/6--4-2-2-|
    B-|-2--4-------------2--4---------------|
    
    
    F#                                 D#m7
    Me he vuelto dependiente de tu corazón
    
    y de tu amistad
    Bm9                                 C#sus4
    me he vuelto dependiente de tu dirección
    
    en mi caminar.
    F#                                    D#m7
    
  • De ti dependo
    Intro(Versión guitarra eléctrica)
    
    e)|2--1------------------------------|
    B)|------2---------------------------|
    G)|----------------------------------|x2
    D)|----------------------------------|
    A)|----------------------------------|
    E)|----------------------------------|
    
    
    e)|----------------4--6---4----2------|
    B)|-0--2--4--2--4---------------------|
    G)|-----------------------------------|x1
    D)|-----------------------------------|
    A)|-----------------------------------|
    E)|-----------------------------------|
    
    
    e)|----------------4--6---4----2---2--|
    B)|----------2--4---------------------|
    G)|-----------------------------------|x1
    D)|-----------------------------------|
    A)|-----------------------------------|
    E)|-----------------------------------|
    
    
     Me he vuelto dependiente de tu corazón
     Y de tu amistad
     Me he vuelto dependiente de tu dirección
     En mi caminar
     No hay nada que me llene como lo haces tu
     Eres mi diario pan
     Tu eres la razón de cada sueño en mi
     Ere
  •  intro:
    
     e------------------------------4-4-p--6-4--------4-4-p-6-4------
     b-7-6-----7-6---------4-----4-------------7----4------------7-7-
     g------6-------6-4-6-----6-------------------6------------------
    
    
     final:
    
     e------------------------------4-4-p--6-4--------4-4-p-6-4------
     b-7-6-----7-6---------4-----4-------------7----4------------7-7-
     g------6-------6-4-6-----6-------------------6------------------
    
     e------------------------------4-4-p--6-4--------4-4-p-6-4------
     b-7-6-----7-6---------4-----4-------------7----4------------7-7-
     g------6-------6-4-6-----6-------------------6------------------
    
    
      este punteo es el de la electrica
    
    
     |que Dios los bendiga¡
  • +
    ¡Colabora con nosotros!
    Envíanos tu versión de esta canción

Letra de De ti dependo
Me he vuelto dependiente de tu corazón
Y de tu amistad
Me he vuelto dependiente de tu dirección
En mi caminar
No hay nada que me llene como lo haces tu
Eres mi diario pan
Tu eres la razón de cada sueño en mi
Eres mi verdad
De ti depende mi vida
D#m(add2)
Mi sueños y mi alegría
Como la lluvia necesita nubes
Como el rió del mar




[De ti dependo chords][De ti dependo cifra]
© LaCuerda.net · aviso legal · privacidad · es · en · pt · contacto