Acordes de Guitarra » J »Jesús Adrián Romero » Cuenta Conmigo (Tab)

Cuenta Conmigo
Jesús Adrián Romero

Letras, Acordes y Tabs para Guitarra, Bajo y Ukulele

  • Dm  F   C   Dm   F   C
    
    
    
    Dm                   F
    //Desde que salga el sol
          C                  Dm
    Hasta que vuelva la luna
                       F
    De donde ahora estoy
              C
    Y hasta el último rincón
          Dm
    Del mundo
                F
    No importa la ocasión
            C
    Si tú me necesitas
    A#maj7
    Dispuesto estoy a ir
    
  •  Fm         G#
    //Desde que salga el sol
          Cm            D#
    Hasta que vuelva la luna
    Fm         G#
     De donde ahora estoy
               Cm        D#      Fm
    Y hasta el último rincón del mundo
               G#
    No importa la ocasión
       D#
    Si Tú me necesitas
       A#m
    Dispuesto estoy a ir
           Cm
    y obedecer//
    
    Coro:
              Fm        G#
    Cuenta conmigo para ir
    
  • Fm         Ab
    //Desde que salga el sol
          Cm            Ebadd2
    Hasta que vuelva la luna
    Fm         Ab
     De donde ahora estoy
               Cm        Ebadd2      Fm
    Y hasta el último rincón del mundo
               Ab
    No importa la ocasión
       Eb           Cm
    Si Tú me necesitas
       DbM7
    Dispuesto estoy a ir
           Cm
    y obedecer//
    
    Coro:
              Fm        Ab
    Cuenta conmigo para ir
    
  • A-8----8-----8-6---6------6-8----8-------8-6------------6-6/8
    D--6----6--6----5----5---5-----6----6---6-----5--6/8-6-8-----
    G----5---5--------5----5---------5----5--------5-------------
    B---------------------------------------------------------
    
    Fm                   G#                  Eb
    
    E-------------------------------------------------------
    A------------8---------10---------11~~~-11--11--10--11--
    D-10-8-10---10-8-10---10-8-10--10/11--10--10---8--10
    G-------------------------------------------------------
    B-------------------------------------------------------
    
    Fm                   G#                  Eb
    
    E-------------------------------------------------------
    A-----------8----------10--------10/11--10-10-8--8-
    D-10-8-10---10-8-10----10-8-10-8/10--8--8--6--6
    G--------------------------------------------------------
    B--------------------------------------------------------
    
  • E---------------------------------------------------------------------
    A-8---8-------8-6----6-------6-8-----8-------8-6----------------------
    D---6---6---6-----5----5---5-----6-----6---6------5------------------3
    G-----5---5---------5----5---------5-----5----------5--3/5-3--1/3-1---
    B---------------------------------------------------------------------
    e---------------------------------------------------------------------
    
    Solo guitarra eléctrica y empieza acústica    ~=debe de seguir sonando
    
    Fm                   G#                  Eb
    
    E----------------------------------------------
    A----------------------------------------------
    D--------3--------3---------5/6-5-5-3-5--------
    G--5-3-5----5-3-5----5-3-5--5/6-5-5-3-5--------
    B----------------------------------------------
    e----------------------------------------------
    
    Fm                   G#                  Eb
    E--------------------------------------------
    
  • +
    ¡Colabora con nosotros!
    Envíanos tu versión de esta canción

Letra de Cuenta Conmigo
//Desde que salga el sol
Hasta que vuelva la luna
De donde ahora estoy
Y hasta el último rincón
Del mundo
No importa la ocasión
Si tú me necesitas
Dispuesto estoy a ir
y obedecer//
Cuenta conmigo para ir
Aunque no vuelva a regresar
Cuenta conmigo para ir
Hasta no poder respirar
A donde me quieras llevar
Siempre en las filas me hallaras
Conmigo tu puedes contar
En cualquier lugar
Cuenta conmigo
Si tarde has de llamar
Eso ya no me incomoda
Mis planes son de ti
Mis poemas mi canción
Mis horas
No importa la ocasión
Si tu me necesitas
Dispuesto estoy a ir
Y obedecer.
OBSERVACIÓN: la nota A#maj7 se hace igual en el con el capo,
y tambien la nota Bb, haganla como si no tuviera el capotraste
normalmente. [si no sabes A#maj7 buscala en el glosario]
Saludos a la Iglesia Apostólica De La Fe En Cristo Jesús.




[Cuenta Conmigo chords][Cuenta Conmigo cifra]
© LaCuerda.net · aviso legal · privacidad · es · en · pt · contacto