Acordes de Guitarra » J »Jesús Adrián Romero » Cerca de Jesús (Tab)

Cerca de Jesús
Jesús Adrián Romero

Letras, Acordes y Tabs para Guitarra, Bajo y Ukulele

  • intro: //D G//
    
               D                  G
    En mi caminar, en mi diario andar
               Bm                  Asus4 A
    Cerca de Jesus quiero siempre estar
                D                 G
    En mi despertar y en mi descansar
               Bm A             G      D
    Cerca de Jesus me quiero encontrar
    
    G               F#m
    Cerca de Jesus, cerca de Jesus
    Bm                             Asus4 A D/F#
    No hay otro lugar donde quiero estar
    G               F#m
    Cerca de Jesus, cerca de Jesus
    Em            Asus4 A G        //D  G//
    Quiero siempre estar cerca de Jesus
    
    
  • e--10-10-9-9-12-12-10-9-10-9--10-10-9-9----------
    B----------------------------------------10------
    
    e--10-10-9-9-12-12-10-9-10-9--10-10-9-9----------
    B----------------------------------------10------
    
    Estrofa 1
    
    (Se arpegia sobre D)
    
    e----------0-0-----------------------------
    B--3-3-2-2-----3-2-3-2--3-3-2-2------------
    G--------------------------------2---------
    (se repite este arpegio en la estrofa inicial)
    
    En mi caminar, en mi diario andar
    
    Cerca de Jesús quiero siempre estar
    
    En mi despertar y en mi descansar
    
  • intro: se repite dos veces
    
    1--10--10-9--9-12--12-9--9-10-9-10--10-9--9----
    2----10----10----10----10---------10----10--10-
    3-------------------------------0--------------
    4--0-------------------------------------------
    
    estrofas:se repite
    
    
    1------------0--0------------------------------0--0---------
    2--3--3-2--2-----2-2-3-2---3-3-2--2----3-3-2-2-----2-2-3-2--
    3---2----2----2---2---------2---2--2----2---2---2---2-------
    4--0--------------------------------------------------------
    5--------------------------------------2--------------------
    6--------------------------3--------------------------------
    
    1------------                        1----------------2---3--
    2--3-3-2--2--     para entrar al     2--3-3-2--2-----3-3---3-
    3---2---2--2-     coro se hace esto  3---2---2--2---2---2----
    4------------                        4-------------0---------
    5--0---------                        5--0--------------------
    6------------                        6-----------------------
    
    
    CORO:se repite
      
  • +
    ¡Colabora con nosotros!
    Envíanos tu versión de esta canción

Letra de Cerca de Jesús
En mi caminar, en mi diario andar
Cerca de Jesus quiero siempre estar
En mi despertar y en mi descansar
Cerca de Jesus me quiero encontrar
Cerca de Jesus, cerca de Jesus
No hay otro lugar donde quiero estar
Cerca de Jesus, cerca de Jesus
Quiero siempre estar cerca de Jesus
Cuando llegue el fin, de mi vida aqui
Cerca de Jesus quiero yo morir
Y al llegar alla a la eternidad
Cerca de Jesus quiero yo habitar




[Cerca de Jesús chords][Cerca de Jesús cifra]
© LaCuerda.net · aviso legal · privacidad · es · en · pt · contacto