Acordes de Guitarra » J »Jesús Adrián Romero » Celebraré tu amor (Tab)

Celebraré tu amor
Jesús Adrián Romero

Letras, Acordes y Tabs para Guitarra, Bajo y Ukulele

  • A D E D
    
    A             C#m              Dmaj          Emaj
    Incomparable, inigualable es tu amor y me rodea
    A             C#m              Dmaj          Emaj
    tu me abrazaste me sonreíste señor en mi pecado
    C         F#m      D               E
    tu amor me alimenta, tu amor me sustenta
    
           A      D              E - D
    Celebraré tu amor todos los días
           A      D         E   -   D
    Celebrar tu gran misericordia
           A        D         E   -  D
    Celebraré tu gracia inmerecida
         C#m      D    E  -  D
    Celebraré tu amor
    
    A             C#m              Dmaj    Emaj
    Inmensurable, Inagotable es tu amor y nunca cambia,
    
  • A2 D2 E D2
    
    A2             C#m              D2          E
    Incomparable, inigualable es tu amor y me rodea
    A2            C#m              D2         E
    tu me abrazaste me sonreíste señor en mi pecado
    C#m         F#m      D2               E  Esus4-E
    tu amor me alimenta, tu amor me sustenta
                 (CORO)
    
           A2      D2              E - D2
    Celebraré tu amor todos los días
           A2      D2         E   -   D2
    Celebrare tu gran misericordia
           A2        D2         E   -  D2
    Celebraré tu gracia inmerecida
         A2      D2    E  -  D
    Celebraré tu amor
    
    A2             C#m              D2    E
    
  • LAsus2 REsus2 MI REsus2
    
    LAsus2        DO#m7              REsus2   MI
     Incomparable,  inigualable es tu amor y me rodea
    LAsus2         DO#m7             REsus2  MI
     tu me abrazaste  me sonreíste señor en mi pecado
    DO#7         FA#m    REsus2           MI
    tu amor me alimenta,    tu amor me sustenta
    
          LAsus2  REsus2        MI - REsus2
    Celebraré tu amor todos los días
          LAsus2  REsus2    MI   -   REsus2
    Celebraré tu gran misericordia
          LAsus2  REsus2      MI - REsus2
    Celebraré tu gracia inmerecida
         DO#m7   REsus2   MI  -  REsus2
    Celebraré tu amor
    
    LAsus2        DO#m7              REsus2   MI
    Inmensurable, Inagotable es tu amor y nunca cambia,
    
  • (INTRO)
    
    E-----12-10-9----------9----
    B--10---------12-10-12---10-
    G---------------------------
    D---------------------------
    A---------------------------
    E---------------------------
    
    E-----12-10-9-----------
    B--10---------12-10-12--
    G-----------------------
    D-----------------------
    A-----------------------
    E-----------------------
    
    E-----12-10-9----------9----
    B--10---------12-10-12---10-
    G---------------------------
    D---------------------------
    A---------------------------
    E---------------------------
    
    E----------9-10-9----------
    B-------10--------10h12p10-
    G-9h11---------------------
    D--------------------------
    A--------------------------
    E--------------------------
    
    
    E-------------------------
    B-2S5----------------------
    G-------------------------
    
    (INTERMEDIO) después del segundo coro, el solo
    se hace dos veces
    
    * ESTO ES UN GOLPE SECO STACATO
    
    B-----------------------------------------
    G--------------------------------------------5H7P5-
    D--5H7-7*-7*-7*-7*-5H7* -5H7-7*-7*-7*-7*--
  • INTRO:
    
    E---O----------------------
    B------3--1--0-----0--1----
    G-2-------------2--------2-
    
    E---O-----------------
    B------3--1--0-----0--
    G-2-------------2-----
    
    E---O----------------------
    B------3--1--0-----0--1----
    G-2-------------2--------2-
    
    E-------------------
    B---0---1-3-1--0----
    G-2---2-------2-2---
    D-----------------2-
    
    
    SOLO DE GUITARRA;
    
    E--------------------
    B--------------------
    G-1H2-2-0-2--0-0-2---
    D-------------2------
    
    E--------------------
    B---------------3-2--
    G-1H2-2-0-2--0-2-----
    D--------------------
    
    E--------------------
    B--------------------
    G-1H2-2-0-2--0-0-2---
    D-------------2------
    
    E--------------------
    B--------------------
    G-1H2--2--2--0-------
    D------------2-------
    
    EN EL PUENTE ES LO MISMO SE REPITE OTRAS 3 VESES
    
    ESTA ES MI PRIMERA TRANSCRIPCION Y ESPERO QUE LES SEA
    DE  BENDICION
    SALUDOS A TODOS LOS JOVENES DE LA IGLESIA HEBRON DE FULLERTO
    Y A MIS PASTORES ANGEL Y CARMEN DOMINGUEZ
    Y UN SALUDO ESPECIAL A MI PRIMO NATA Y MI PRIMA ZURI Y
    A TODA MI FAMIL
  • CELEBRARÉ TU AMOR
    
    (INTRODUCCIÓN)
    
    G-------------------------
    D-------------------------
    A----------5--5-7-7-5---
    E------5-5----------------
    
    G---------------------
    D---------------------
    A---------5---5-7-7--
    E-----5-5-------------
    
    G---------------------
    D---------------------
    A------5--5-7-7-5---
    E--5-5----------------
    
    G-------------------------
    D--------------------------
    A----------5-5-0------7--
    E-5-5---5--------5-------
    
    
    
    
    (ESTROFA)
    
    G----------------------------------
    D----------------------------------
    A--------------4-4---5-5----7---
    E------5-5------------------------   (X2)
    
    (PRE-CORO) NOTA:  C#m
    
    G---------------------------------
    D---------------------------------
    A-------4----4-4-----2-4-------
    E-------------------4-------------
    
    NOTA: F#m
    
    G------------------------
    D------------------------
    A------------------------
    E-----2---2-2---0-2----
    
    NOTA: D
    
    G---------------------
    D---------------------
    A--5----5-5----3-5-
    E-------------5-------
    
    (CORO) igual que la introducc
  • CELEBRARÉ TU AMOR
    
    Intro
    E|--5-5-|------|-----|-------|
    A|------|-5--5-|-7-7-|-5--5--|
    D|------|------|-----|-------|
    G|------|------|-----|-------|
    
    E|--5-5-|------|-----|----------|
    A|------|-5--5-|-7-7-|-5/7-7-7--|
    D|------|------|-----|----------|
    G|------|------|-----|----------|
    
    E|--5-5-|------|------|-------|
    A|------|-5--5-|-/7-7-|-5--5--|
    D|------|------|------|-------|
    G|------|------|------|-------|
    
    E|--5-5-|-5-----|-----------|----------|
    A|------|--5--7-|-5/7-5-5-5-|-5-5-5-5--|
    D|------|-------|-----------|----------|
    G|------|-------|-----------|----------|
    
    VERSO
    Inconparable
    E|--5-5-|-5-----|-------|-------|-5----|
    A|------|---4-4-|-4-5-5-|-5-7-7-|---7--|
    D|------|-------|-------|-------|------|
    G|------|-------|-------|-------|------|
    
    Tu me abrazaste
    E|--5-5-|-5-----|-------|-------|-5h7----|
    A|------|---4-4-|-4-5-5-|-5-7-7-|-----7--|
    D|------|-------|-------|-------|--------|
    G|------|-------|-------|-------|--------|
    
    Tu amor me alimenta
    E|----------|-22------|--
  • +
    ¡Colabora con nosotros!
    Envíanos tu versión de esta canción

Letra de Celebraré tu amor
Incomparable, inigualable es tu amor y me rodea
tu me abrazaste me sonreíste señor en mi pecado
tu amor me alimenta, tu amor me sustenta
Celebraré tu amor todos los días
Celebrar tu gran misericordia
Celebraré tu gracia inmerecida
Celebraré tu amor
Inmensurable, Inagotable es tu amor y nunca cambia,
estas conmigo y no me puedo escapar aunque lo intente
tu amor es eterno, tu amor es perfecto
Celebraré tu amor y tu misericordia oh Dios oh oh.




[Celebraré tu amor chords][Celebraré tu amor cifra]
© LaCuerda.net · aviso legal · privacidad · es · en · pt · contacto