Acordes de Guitarra » J »Jesús Adrián Romero » Cantad alegres (Tab)

Cantad alegres
Jesús Adrián Romero

Letras, Acordes y Tabs para Guitarra, Bajo y Ukulele

  •                  F
    Cantad alegres a Dios
    
    Habitantes de la tierra         
                       C7
    Glorificad al creador
    Bb7               F
    Reconoced su grandeza
                    F
    Con alegría cantad
    
    De su poder y su gloria
                     C7
    Servidle con regocijo
    Bb7                    F
    Pues nos ha hecho sus hijos
    
    
    coro
    
    
  • intro: F7 9,Fm6/Ab,F7 9,Fm6/Ab
           (Solo Guitarra)
    
    
    F            F7 9     Fm6/Ab
    Cantad alegres a Dios
     F7 9                 Fm6/Ab
    Habitantes de la tierra      C.B,Bb
     F7 9             Fm6/Ab    (metales)
    Glorificad al creador
    F7 9              Fm6/Ab
    Reconoced su grandeza
      F
    Con alegría cantad
                  Fm6/Ab
    De su poder y su gloria
                  F
    Servidle con regocijo
                         F7 9
    Pues nos ha hecho sus hijos
    
  • Riff intro y estrofa
    -------------------------------
    -------------------------------
    8---10----8---10-----13--13----
    X---X--- X---X------X---X------
    6----8----6----8------11--11---
    -------------------------------
    
    Puente antes del solo, se toca durante el solo,
    pero mas lento, apenas, creo. Antes del solo lo toca una guitarra,
     y durante el solo, el bajo.
    -----------------------------------------------------------------------
    -----------------------------------------------------------------------
    -----------------------------------------------------------------------
    -----------------6---------------------------8h10p8\(6)----------------
    8--6--8--6--8----5-----------8--6--8---------------------8------4----6-
    -----------------------------------------------------------------------
    
    Solo. Esta es mi interpretación
    -------------------------------------------------------------------
    11b(13)11 *----------------------------------------------11vv------
    ------------------1
  • +
    ¡Colabora con nosotros!
    Envíanos tu versión de esta canción

Letra de Cantad alegres
Cantad alegres a Dios
Habitantes de la tierra
Glorificad al creador
Reconoced su grandeza
Con alegría cantad
De su poder y su gloria
Servidle con regocijo
Pues nos ha hecho sus hijos
Te damos alabanzas Señor
Te has vestido de honor y poder
Las naciones tributo darán
A tu nombre por la eternidad
Y tu reino la tierra cubrirá
Lo declaramos Señor
ACORDES




[Cantad alegres chords][Cantad alegres cifra]
© LaCuerda.net · aviso legal · privacidad · es · en · pt · contacto