Acordes de Guitarra » J »Jesús Adrián Romero » Ayer te ví (Tab)

Ayer te ví
Jesús Adrián Romero

Letras, Acordes y Tabs para Guitarra, Bajo y Ukulele

  • Intro: G D/F# Bm7 Dmaj7/A G D/F# Gmaj7/A A7
    
        D
     Ayer te vi
    
            A/G            G         Em9
    Fue mas claro que la luna en mi no quedaron dudas
    
             G              D/F#
    Fue una clara aparicion
    
              Em9                Gnaj7/A   A7
    Me ha saltado el corazon cuando te vi
    
      D                 A/G          G
    Ayer te vi despues de buscarte tanto
    
           Em9                 G                 D/F#
    Antes de salir el sol y pedirte que me dejes
    
    
  • Intro: D(add4) G D(add4) Em  A
    
    
      D(add4)             G
    Ayer te vi, fue más claro que la luna,
          Em                          G
    En mi no quedaron dudas, fue una clara aparición,
            Em                    A
    Me ha saltado el corazón, cuando te vi.
      D(add4)            G                       Em
    Ayer te vi, después de buscarte tanto, antes de salir el sol,
            G                    Em
    Y pedirte que me dejes, ver tu rostro en oración,
         A
    Ayer te vi.
    
    Coro:
                 G          D              Bm           D
    Te vi en un niño de la calle, sin un lugar para dormir,
                  G         D                Bm
    
  •    G  D/F#  Bm7   Asus4   Em9  A7sus4  Ddim   A7
    1--x----x----x------x------x------x-------------x------
    2--3----3----2------3------7------3------0------2------
    3--0----2----0------6------0------0------0------0------
    4--4----0----4------4------7------4------0------2------
    5--x----x----2------x------x------x------x------x------
    6--3----2-----------5------0------5--------------------
    
    
    Riff Intro: G  D/F#  Bm7  Asus4 - G  D/F#  Em9  A7sus4  Ddim  A7
    
    
       G          D/F#  Bm7        Asus4
    1-----------|-----|----------|--------|
    2---------3----3-----5h3--3------3----
    3-------0------2-----0----0------6----
    4-----4--------0-----4----4------4----
    5--------------------2----------------
    6---3-------|--2--|----------|---5----|
    
    
  •      Ab▲7     Cm7  Ab▲7/Bb
    e-|-------------------------|
    B-|----3--3----5p3-3--3-----|
    G-|---0---0--------2--0-----|
    D-|--4----------------------|
    A-|------------2------0-----|
    E-|-3-----2-----------------|
    
         Ab▲7      Fm9        Ab▲7/Bb   Bb7
    e-|------------2p0-0------------0-----|
    B-|-----3--3---3---3--3----3--3---0-2-|
    G-|----0---0----------0---0---0-----0-|
    D-|---4---------------4--4----4-------|
    A-|---------------------------0-----0-|
    E-|--3-----2---0----------------------|
    
    C A N T O:
    
        Eb             Bb/Ab     Ab        Fm9
      Ayer te vi fue más cla...luna en mi no quedaron dudas
    
  • +
    ¡Colabora con nosotros!
    Envíanos tu versión de esta canción

Letra de Ayer te ví
Ayer te vi
Fue mas claro que la luna en mi no quedaron dudas
Fue una clara aparicion
Me ha saltado el corazon cuando te vi
Ayer te vi despues de buscarte tanto
Antes de salir el sol y pedirte que me dejes
Ver tu rostro en oracion ayer te vi
Te vi en un niño de la calle sin un lugar para dormir
Te vi en sus manos extendidas pidiendo pan para vivir
Te vi en sus ojos suplicantes y en su sonrisa titubiante
Ayer te vi
Te vi en un cuarto de hospital en soledad te vi llorar
Te vi en el rostro tribulado de un enfermo desahuciado
Sin esperanza de vivir cansado de tanto sufrir
Ayer te vi
Ayer te vi
Te disfrazas y te escondes de mi vista
Pero ayer te vi ayer te vi




[Ayer te ví chords][Ayer te ví cifra]
© LaCuerda.net · aviso legal · privacidad · es · en · pt · contacto