Acordes de Guitarra » J »Jesús Adrián Romero » Alzad oh puertas (Tab)

Alzad oh puertas
Jesús Adrián Romero

  • Letra y Acordes
    D#m D#add2 C#add2            D#m D#add2 C#add2
     ALZAD OH PUERTAS VUESTRAS CABEZAS
    D#m D#add2 C#add2         D#m   D#add2  C#add2
     ALZAOS VOSOTROS PUERTAS ETERNAS
    G#                   Badd2 A#add2  D#m D#add2 C#add2
     Y ENTRARA EL REY DE GLORIA, OTRA VEZ
    
    D#m D#add2 C#add2            D#m D#add2 C#add2
     ALZAD OH PUERTAS VUESTRAS CABEZAS
    D#m D#add2 C#add2            D#m D#add2 C#add2
     ALZAOS VOSOTROS PUERTAS ETERNAS
    G#                   Badd2 A#add2 D#m D#add2 F# G#
     Y ENTRARA EL REY DE GLORIA, OTRA VEZ
    
    Badd2       G#/C
     PODEROSO Y FUERTE EN LA BATALLA
    Badd2       G#/C
     VERDADERO Y FIEL EL NUNCA FALLA
    Badd2            C#add2            D#m Badd2 C#add2
     JESUCRISTO ES SU NOMBRE, EL ES EL REY
    
  • Letra y Acordes
    D#    F F   C#(5)  G#/A#    D# D#
    //Alzad oh Puertas Vuestras Cabezas  (entre cada renglón ejecutar los acordes)
    D#   F F C#(5)   G#/A#  D# D#
    Alzaos Vosotros puertas eternas
    G#           G#  A#  B   A#  (se ejecutan los tonos del verso)
    Y entrara el Rey de gloria otra vez//
    D# - B - C# --(para entrar al coro)
    
    Coro:
    B B        C    C              B B
    Poderoso y fuerte en la batalla
                C    C             B B
    Verdadero y fiel el nunca falla
                     C#              D#   B x2/C#
    Jesucristo es su nombre el es el Rey
    
    C#   F#        G#  A#   B
    A A  le  luya  A A le  luya
    G#  A#   B C#     D#   B x2/C#
    A a le   luya al Rey
    
  • Tablatura
       D#m   B - C#  C#    D#m
    E --------------------------------------
    A --------------------------------------
    D -------9-11----9-11-12----------------
    G --8-8------------------8--------------
    B --------------------------------------
    e --------------------------------------
    
    Bueno esto se podría llamar como el requinto
    que hace la guitarra eléctrica con distorsionador...
    mientras que la electroacústica rasgue las notas que son:
     D#m , B, C# y otra vez D#m
    
    Ese requinto va en los verso “Alzad oh puertas....”
    
    Y lo demas va normal
    
       D#m   B - C#  C#    D#m
    E --------------------------------------
    A --------------------------------------
    
  • Tab p/Bajo
    Hola! Me verán bastante seguido por aquí, en esta ocasión 
    contribuyo con esta alabanza
    
    Intro:
    Empiezan los strings y luego:
    B---------------------------|--------------------------|
    E--------------4--6---------|--------------4--6--------|
    A---6--8-8--4--------4--6---|---6--8-8--4--------4--6--|
    D---------------------------|--------------------------|
    G---------------------------|--------------------------|
    2 veces.
    Estrofa:
    B---------------------------|--------------------------|
    E--------------4--6---------|--------------4--6--------|
    A---6--8-8--4--------4--6---|---6--8-8--4--------4--6--|
    D---------------------------|--------------------------|
    G---------------------------|--------------------------|
    2 veces
    Y entrará...
    B-----------------------|
    E----4-4---6--7---------|
    A-----------------6-6---|
    D-----------------------|
    G-----------------------|
    -Intro 1 vez
    -Estrofa.
    
    Para entrar al coro:
    B---------------------|
    E---------------------|
    A---6---
  • +
    ¡Colabora con nosotros!
    Envíanos tu versión de esta canción

Letra de Alzad oh puertas
//Alzad oh Puertas Vuestras Cabezas (entre cada renglón ejecutar los acordes)
Alzaos Vosotros puertas eternas
Y entrara el Rey de gloria otra vez//
Poderoso y fuerte en la batalla
Verdadero y fiel el nunca falla
Jesucristo es su nombre el es el Rey
A a le luya al Rey
Verso.
Final[musica]
Escuchen la grabación por eso de los tonos para ejecutarlos en el tiempo adecuado
No se asuten por ver tantas notas jeje es solo la representación en cada silaba
Bendiciones y dudas al mail con mucho gusto responderé. Honra y Gloria al Señor
saludos a la banda de torre fuerte!
NOTACION
C#(5) acorde solamente tocando la base y su quinta (C# y G#)
Y asi con los acordes con (5)
/ significa deslizar de forma ascendente



© LaCuerda.net · aviso legal · privacidad · contacto