Acordes de Guitarra » J »JD Natasha » Lágrimas (Tab)

Lágrimas
JD Natasha

Letras, Acordes y Tabs para Guitarra, Bajo y Ukulele

  • F#m
    
    Triste, me dejaste triste
                 SIm
    como esta canción
                 A E
    lágrimas de amor
    F#m
    fuiste, quizás nunca tuviste
              SIm
    este corazón
                 A E
    lágrimas de amor
    
    
        A
    y te vas
        C#m
    y te vas
              D
    
  •          A#               D*                 D#*       D#m
     ||-1-1-1-1-1-1-1-1-|-x-x-x-x-x-x-x-x-|-x-x-x-x-1-x-x-x-|-6-||
     ||-3-3-1-3-4-3-1-3-|-3-3-1-3-4-3-1-3-|-4-4-3-4-4-4-3-4-|-7-||
     ||-3-3-3-3-3-3-3-3-|-2-2-2-2-2-2-2-2-|-3-3-3-3-3-3-3-3-|-8-||
     ||-3-3-3-3-3-3-3-3-|-0-0-0-0-0-0-0-0-|-1-1-1-1-1-1-1-1-|-8-||
     ||-1-1-1-1-1-1-1-1-|-x-x-x-x-x-x-x-x-|-x-x-x-x-x-x-x-x-|-6-||
     ||-----------------|-x-x-x-x-x-x-x-x-|-x-x-x-x-x-x-x-x-|---||
    
    Gm
    Triste, me dejaste triste
                 Cm
    como esta canción
                A#         F
    lágrimas de amor
    Gm
    fuiste, quizás nunca tuviste
             Cm
    este corazón
                A#       F
    lágrimas de amor
    
  • e------------------------------------------
    B--------1-1-0------1-1-0------------------
    G------------------------------------------   x2
    D--------2-2-2------2-2-2------------------
    A--0-0----------0-0------------------------
    E------------------------------------------
    
    
    
    Am                Am7
    Triste, me dejaste triste
                 E7
    como esta canción
                 C F
    lágrimas de amor
    Am                   Am7
    fuiste, quizás nunca tuviste
              E7
    este corazón
                 C F
    
  • +
    ¡Colabora con nosotros!
    Envíanos tu versión de esta canción

Letra de Lágrimas
Triste, me dejaste triste
como esta canción
lágrimas de amor
fuiste, quizás nunca tuviste
este corazón
lágrimas de amor
y te vas
y te vas
no me queda nada
y te vas
y te vas
no me queda nada
porque no estás.
dime
tell me that you need me
antes de que muera el sol
lágrimas de amor
Viven, los besos que me diste
ya no creo en nada más
lágrimas de amor.
y te vas
y te vas
no me queda nada
y te vas
y te vas
no me queda nada
porque no estás.
esto es por dos, la segunda vez es después de un
requintillo.
Como no tengo la rola, la saqué del video que pasan y de mi memoria, pero
suena bastante bien, así que no se quejen.
Grax.

Video de Lágrimas
[]




[Lágrimas chords][Lágrimas cifra]
© LaCuerda.net · aviso legal · privacidad · es · en · pt · contacto