Acordes de Guitarra » J »Jauría » La Jauría (Tab)

La Jauría
Jauría

  • Letra y Acordes
    A Em A
    
    A
    Que hay que no sepas de esta raza fiel
    A                    C                A
    Que habitamos en medio de este infierno
    A
    Viviendo libres si! Corriendo libres si!
    A                          C      A
    Libre o muerto, no hay opción aquí
    
    A
    Es claro el reglamento a seguir
    A                      C         A
    Esta muy claro que no hay reglamento
    A
    No hay una lógica! Instinto animal:
    A                C               A
    Vida de perros siempre en libertad!
    
    
  • Tablatura
    e|-------------------------------------------|
    b|-------------------------------------------|
    g|-------------------------------------------|
    d|------------5-------------------5---5-5-7--|
    a|------7-7-7---7-5---------7-7-7---7--------|
    E|--5-5-------------8---5-5------------------|
    
    
    
      Riff 1       A5 A5  Riff 2                Riff 3
    e|-------------------|---------------------|-------------|
    b|-------------------|--9-9--9-9-9--9-9----|--9-9-9-8-0--|
    g|-------------------|--9-9--9-9-9--9-9----|--9-9-9-8-0--|
    d|--------------7-7--|---------------------|-------------|
    a|--------------7-7--|---------------------|-------------|
    E|--7-5-3-0-3-5-5-5--|---------------------|-------------|
    
     Riff 4 (con P.M)
    e|--------------------------------|
    b|--------------------------------|
    
  • Tablatura
    E|----------------|----------------|
    B|----------------|----------------|
    G|*---------------|---------------*|
    D|*7-7-----5------|7-7-----5----5-*|
    A|-7-7-5/7--7-5---|7-7-5/7--7-5----|
    E|-5-5----------7-|5-5-------------|
    
    A
    Que hay que no sepas de esta raza fiel
                              Riff1
    Que habitamos en medio de este infierno
    A
    Viviendo libres si! Corriendo libres si!
    Libre o muerto, no hay opción aquí
    
    A
    Es claro el reglamento a seguir
                              Riff1
    esta muy claro que no hay reglamento
    A           D               C
    
  • +
    ¡Colabora con nosotros!
    Envíanos tu versión de esta canción

Letra de La Jauría
Que hay que no sepas de esta raza fiel
Que habitamos en medio de este infierno
Viviendo libres si! Corriendo libres si!
Libre o muerto, no hay opción aquí
Es claro el reglamento a seguir
Esta muy claro que no hay reglamento
No hay una lógica! Instinto animal:
Vida de perros siempre en libertad!
Pobre gente buscando felicidad
Insaciables consumen de todo y mas
Falsa vida vacía y superficial
Y se mueren por estar acá
en la jauría de la libertad!
Ojos de perro para ver mejor
Oído agudo que advierte el peligro
Olfato detector de mala humanidad
Listos para correr o atacar
Pobre gente buscando felicidad
Insaciables consumen de todo y mas
Falsa vida, vacía y superficial
Y se mueren por estar acá
en la jauría de la libertad!
Quien sabe adonde vamos a dormir
Quien sabe cuando diablos comeremos
Anochecer aquí, amanecer allá
Y en la ruta muertos terminar!!!
Pobre gente buscando felicidad
Insaciables consumen de todo y mas
Falsa vida, vacía y superficial
Y se mueren por estar acá
en la jauría de la libertad!
Au au au au!
Au au au au!



© LaCuerda.net · aviso legal · privacidad · contacto